  0
SECTION
  2
HEADER
  9
$ACADVER
  1
AC1015
  9
$ACADMAINTVER
 70
    20
  9
$DWGCODEPAGE
  3
ANSI_1252
  9
$INSBASE
 10
0.0
 20
0.0
 30
0.0
  9
$EXTMIN
 10
-0.0000000000109139
 20
0.0
 30
0.0
  9
$EXTMAX
 10
210.0000000000037
 20
297.0000000000025
 30
0.0
  9
$LIMMIN
 10
-8.865385100115418
 20
-10.11442305859748
  9
$LIMMAX
 10
220.8635958253726
 20
304.7151289353753
  9
$ORTHOMODE
 70
     0
  9
$REGENMODE
 70
     1
  9
$FILLMODE
 70
     1
  9
$QTEXTMODE
 70
     0
  9
$MIRRTEXT
 70
     0
  9
$LTSCALE
 40
1.0
  9
$ATTMODE
 70
     1
  9
$TEXTSIZE
 40
2.5
  9
$TRACEWID
 40
1.0
  9
$TEXTSTYLE
  7
Standard
  9
$CLAYER
  8
0
  9
$CELTYPE
  6
ByLayer
  9
$CECOLOR
 62
   256
  9
$CELTSCALE
 40
1.0
  9
$DISPSILH
 70
     0
  9
$DIMSCALE
 40
1.0
  9
$DIMASZ
 40
2.5
  9
$DIMEXO
 40
0.625
  9
$DIMDLI
 40
3.75
  9
$DIMRND
 40
0.0
  9
$DIMDLE
 40
0.0
  9
$DIMEXE
 40
1.25
  9
$DIMTP
 40
0.0
  9
$DIMTM
 40
0.0
  9
$DIMTXT
 40
2.5
  9
$DIMCEN
 40
2.5
  9
$DIMTSZ
 40
0.0
  9
$DIMTOL
 70
     0
  9
$DIMLIM
 70
     0
  9
$DIMTIH
 70
     0
  9
$DIMTOH
 70
     0
  9
$DIMSE1
 70
     0
  9
$DIMSE2
 70
     0
  9
$DIMTAD
 70
     1
  9
$DIMZIN
 70
     8
  9
$DIMBLK
  1

  9
$DIMASO
 70
     1
  9
$DIMSHO
 70
     1
  9
$DIMPOST
  1

  9
$DIMAPOST
  1

  9
$DIMALT
 70
     0
  9
$DIMALTD
 70
     3
  9
$DIMALTF
 40
0.03937007874016
  9
$DIMLFAC
 40
1.0
  9
$DIMTOFL
 70
     1
  9
$DIMTVP
 40
0.0
  9
$DIMTIX
 70
     0
  9
$DIMSOXD
 70
     0
  9
$DIMSAH
 70
     0
  9
$DIMBLK1
  1

  9
$DIMBLK2
  1

  9
$DIMSTYLE
  2
ISO-25
  9
$DIMCLRD
 70
     0
  9
$DIMCLRE
 70
     0
  9
$DIMCLRT
 70
     0
  9
$DIMTFAC
 40
1.0
  9
$DIMGAP
 40
0.625
  9
$DIMJUST
 70
     0
  9
$DIMSD1
 70
     0
  9
$DIMSD2
 70
     0
  9
$DIMTOLJ
 70
     0
  9
$DIMTZIN
 70
     8
  9
$DIMALTZ
 70
     0
  9
$DIMALTTZ
 70
     0
  9
$DIMUPT
 70
     0
  9
$DIMDEC
 70
     2
  9
$DIMTDEC
 70
     2
  9
$DIMALTU
 70
     2
  9
$DIMALTTD
 70
     3
  9
$DIMTXSTY
  7
Standard
  9
$DIMAUNIT
 70
     0
  9
$DIMADEC
 70
     0
  9
$DIMALTRND
 40
0.0
  9
$DIMAZIN
 70
     0
  9
$DIMDSEP
 70
    44
  9
$DIMATFIT
 70
     3
  9
$DIMFRAC
 70
     0
  9
$DIMLDRBLK
  1

  9
$DIMLUNIT
 70
     2
  9
$DIMLWD
 70
    -2
  9
$DIMLWE
 70
    -2
  9
$DIMTMOVE
 70
     0
  9
$LUNITS
 70
     2
  9
$LUPREC
 70
     4
  9
$SKETCHINC
 40
1.0
  9
$FILLETRAD
 40
0.0
  9
$AUNITS
 70
     0
  9
$AUPREC
 70
     0
  9
$MENU
  1
.
  9
$ELEVATION
 40
0.0
  9
$PELEVATION
 40
0.0
  9
$THICKNESS
 40
0.0
  9
$LIMCHECK
 70
     0
  9
$CHAMFERA
 40
0.0
  9
$CHAMFERB
 40
0.0
  9
$CHAMFERC
 40
0.0
  9
$CHAMFERD
 40
0.0
  9
$SKPOLY
 70
     0
  9
$TDCREATE
 40
2453619.458003646
  9
$TDUCREATE
 40
2453619.374670312
  9
$TDUPDATE
 40
2453626.543430625
  9
$TDUUPDATE
 40
2453626.460097292
  9
$TDINDWG
 40
0.0058373380
  9
$TDUSRTIMER
 40
0.0058373380
  9
$USRTIMER
 70
     1
  9
$ANGBASE
 50
0.0
  9
$ANGDIR
 70
     0
  9
$PDMODE
 70
     0
  9
$PDSIZE
 40
0.0
  9
$PLINEWID
 40
0.0
  9
$SPLFRAME
 70
     0
  9
$SPLINETYPE
 70
     6
  9
$SPLINESEGS
 70
     8
  9
$HANDSEED
  5
66C1
  9
$SURFTAB1
 70
     6
  9
$SURFTAB2
 70
     6
  9
$SURFTYPE
 70
     6
  9
$SURFU
 70
     6
  9
$SURFV
 70
     6
  9
$UCSBASE
  2

  9
$UCSNAME
  2

  9
$UCSORG
 10
0.0
 20
0.0
 30
0.0
  9
$UCSXDIR
 10
1.0
 20
0.0
 30
0.0
  9
$UCSYDIR
 10
0.0
 20
1.0
 30
0.0
  9
$UCSORTHOREF
  2

  9
$UCSORTHOVIEW
 70
     0
  9
$UCSORGTOP
 10
0.0
 20
0.0
 30
0.0
  9
$UCSORGBOTTOM
 10
0.0
 20
0.0
 30
0.0
  9
$UCSORGLEFT
 10
0.0
 20
0.0
 30
0.0
  9
$UCSORGRIGHT
 10
0.0
 20
0.0
 30
0.0
  9
$UCSORGFRONT
 10
0.0
 20
0.0
 30
0.0
  9
$UCSORGBACK
 10
0.0
 20
0.0
 30
0.0
  9
$PUCSBASE
  2

  9
$PUCSNAME
  2

  9
$PUCSORG
 10
0.0
 20
0.0
 30
0.0
  9
$PUCSXDIR
 10
1.0
 20
0.0
 30
0.0
  9
$PUCSYDIR
 10
0.0
 20
1.0
 30
0.0
  9
$PUCSORTHOREF
  2

  9
$PUCSORTHOVIEW
 70
     0
  9
$PUCSORGTOP
 10
0.0
 20
0.0
 30
0.0
  9
$PUCSORGBOTTOM
 10
0.0
 20
0.0
 30
0.0
  9
$PUCSORGLEFT
 10
0.0
 20
0.0
 30
0.0
  9
$PUCSORGRIGHT
 10
0.0
 20
0.0
 30
0.0
  9
$PUCSORGFRONT
 10
0.0
 20
0.0
 30
0.0
  9
$PUCSORGBACK
 10
0.0
 20
0.0
 30
0.0
  9
$USERI1
 70
     0
  9
$USERI2
 70
     0
  9
$USERI3
 70
     0
  9
$USERI4
 70
     0
  9
$USERI5
 70
     0
  9
$USERR1
 40
0.0
  9
$USERR2
 40
0.0
  9
$USERR3
 40
0.0
  9
$USERR4
 40
0.0
  9
$USERR5
 40
0.0
  9
$WORLDVIEW
 70
     1
  9
$SHADEDGE
 70
     3
  9
$SHADEDIF
 70
    70
  9
$TILEMODE
 70
     1
  9
$MAXACTVP
 70
    64
  9
$PINSBASE
 10
0.0
 20
0.0
 30
0.0
  9
$PLIMCHECK
 70
     0
  9
$PEXTMIN
 10
0.0
 20
0.0
 30
0.0
  9
$PEXTMAX
 10
0.0
 20
0.0
 30
0.0
  9
$PLIMMIN
 10
0.0
 20
0.0
  9
$PLIMMAX
 10
12.0
 20
9.0
  9
$UNITMODE
 70
     0
  9
$VISRETAIN
 70
     1
  9
$PLINEGEN
 70
     0
  9
$PSLTSCALE
 70
     1
  9
$TREEDEPTH
 70
  3020
  9
$CMLSTYLE
  2
Standard
  9
$CMLJUST
 70
     0
  9
$CMLSCALE
 40
20.0
  9
$PROXYGRAPHICS
 70
     1
  9
$MEASUREMENT
 70
     1
  9
$CELWEIGHT
370
    -1
  9
$ENDCAPS
280
     0
  9
$JOINSTYLE
280
     0
  9
$LWDISPLAY
290
     1
  9
$INSUNITS
 70
     4
  9
$HYPERLINKBASE
  1

  9
$STYLESHEET
  1

  9
$XEDIT
290
     1
  9
$CEPSNTYPE
380
     0
  9
$PSTYLEMODE
290
     1
  9
$FINGERPRINTGUID
  2
{D95A7861-679B-4539-9F75-7B7F83A1B126}
  9
$VERSIONGUID
  2
{8ADE73B9-7B40-4815-80BF-D7D0DA173F7E}
  9
$EXTNAMES
290
     1
  9
$PSVPSCALE
 40
0.0
  9
$OLESTARTUP
290
     0
  0
ENDSEC
  0
SECTION
  2
CLASSES
  0
CLASS
  1
ACDBDICTIONARYWDFLT
  2
AcDbDictionaryWithDefault
  3
ObjectDBX Classes
 90
        0
280
     0
281
     0
  0
CLASS
  1
DICTIONARYVAR
  2
AcDbDictionaryVar
  3
ObjectDBX Classes
 90
        0
280
     0
281
     0
  0
CLASS
  1
TABLESTYLE
  2
AcDbTableStyle
  3
ObjectDBX Classes
 90
     2047
280
     0
281
     0
  0
CLASS
  1
SORTENTSTABLE
  2
AcDbSortentsTable
  3
ObjectDBX Classes
 90
    32768
280
     0
281
     0
  0
CLASS
  1
ACDBPLACEHOLDER
  2
AcDbPlaceHolder
  3
ObjectDBX Classes
 90
        0
280
     0
281
     0
  0
CLASS
  1
LAYOUT
  2
AcDbLayout
  3
ObjectDBX Classes
 90
        0
280
     0
281
     0
  0
ENDSEC
  0
SECTION
  2
TABLES
  0
TABLE
  2
VPORT
  5
8
330
0
100
AcDbSymbolTable
 70
     2
  0
VPORT
  5
66B6
330
8
100
AcDbSymbolTableRecord
100
AcDbViewportTableRecord
  2
*Active
 70
     0
 10
0.0
 20
0.0
 11
1.0
 21
1.0
 12
105.9991053626286
 22
147.3003529383889
 13
0.0
 23
0.0
 14
10.0
 24
10.0
 15
10.0
 25
10.0
 16
0.0
 26
0.0
 36
1.0
 17
0.0
 27
0.0
 37
0.0
 40
317.3183231559804
 41
1.62532981530343
 42
50.0
 43
0.0
 44
0.0
 50
0.0
 51
0.0
 71
     0
 72
  1000
 73
     1
 74
     3
 75
     0
 76
     0
 77
     0
 78
     0
281
     0
 65
     1
110
0.0
120
0.0
130
0.0
111
1.0
121
0.0
131
0.0
112
0.0
122
1.0
132
0.0
 79
     0
146
0.0
  0
ENDTAB
  0
TABLE
  2
LTYPE
  5
5
330
0
100
AcDbSymbolTable
 70
     3
  0
LTYPE
  5
14
330
5
100
AcDbSymbolTableRecord
100
AcDbLinetypeTableRecord
  2
ByBlock
 70
     0
  3

 72
    65
 73
     0
 40
0.0
  0
LTYPE
  5
15
330
5
100
AcDbSymbolTableRecord
100
AcDbLinetypeTableRecord
  2
ByLayer
 70
     0
  3

 72
    65
 73
     0
 40
0.0
  0
LTYPE
  5
16
330
5
100
AcDbSymbolTableRecord
100
AcDbLinetypeTableRecord
  2
Continuous
 70
     0
  3
Solid line
 72
    65
 73
     0
 40
0.0
  0
LTYPE
  5
6203
330
5
100
AcDbSymbolTableRecord
100
AcDbLinetypeTableRecord
  2
ISOLAMENTO
 70
     0
  3
isolamento SSSSSSSSSSSSSSSSSSSSSSSSSSSSSSSSSSSS
 72
    65
 73
     4
 40
0.4001000000000001
 49
0.0001
 74
     0
 49
-0.1
 74
     4
 75
   134
340
6208
 46
0.1
 50
0.0
 44
-0.1
 45
0.0
 49
-0.2
 74
     4
 75
   134
340
6208
 46
0.1
 50
180.0
 44
0.1
 45
0.0
 49
-0.1
 74
     0
  0
LTYPE
  5
6204
330
5
100
AcDbSymbolTableRecord
100
AcDbLinetypeTableRecord
  2
ACAD_ISO02W100
 70
     0
  3
Tratto ISO __ __ __ __ __ __ __ __ __ __ __ __ 
 72
    65
 73
     2
 40
15.0
 49
12.0
 74
     0
 49
-3.0
 74
     0
  0
ENDTAB
  0
TABLE
  2
LAYER
  5
2
102
{ACAD_XDICTIONARY
360
620B
102
}
330
0
100
AcDbSymbolTable
 70
     4
  0
LAYER
  5
10
330
2
100
AcDbSymbolTableRecord
100
AcDbLayerTableRecord
  2
0
 70
     0
 62
     7
  6
Continuous
370
    -3
390
F
  0
LAYER
  5
6205
330
2
100
AcDbSymbolTableRecord
100
AcDbLayerTableRecord
  2
Linee
 70
     0
 62
     7
  6
Continuous
370
    -3
390
F
  0
LAYER
  5
6206
330
2
100
AcDbSymbolTableRecord
100
AcDbLayerTableRecord
  2
Blocchi di Testo
 70
     0
 62
     7
  6
Continuous
370
    -3
390
F
  0
LAYER
  5
6687
330
2
100
AcDbSymbolTableRecord
100
AcDbLayerTableRecord
  2
zintek
 70
     0
 62
     7
  6
Continuous
370
    -3
390
F
  0
ENDTAB
  0
TABLE
  2
STYLE
  5
3
330
0
100
AcDbSymbolTable
 70
     6
  0
STYLE
  5
11
330
3
100
AcDbSymbolTableRecord
100
AcDbTextStyleTableRecord
  2
Standard
 70
     0
 40
0.0
 41
1.0
 50
0.0
 71
     0
 42
2.5
  3
txt
  4

  0
STYLE
  5
6208
330
3
100
AcDbSymbolTableRecord
100
AcDbTextStyleTableRecord
  2

 70
     1
 40
0.0
 41
1.0
 50
0.0
 71
     0
 42
0.2
  3
ltypeshp.shx
  4

  0
STYLE
  5
6646
330
3
100
AcDbSymbolTableRecord
100
AcDbTextStyleTableRecord
  2
Architettonico
 70
     0
 40
2.0
 41
1.0
 50
0.0
 71
     0
 42
2.0
  3
TIMES.TTF
  4

1001
ACAD
1000
Times New Roman
1071
       18
  0
STYLE
  5
6647
330
3
100
AcDbSymbolTableRecord
100
AcDbTextStyleTableRecord
  2
Georgia160
 70
     0
 40
1.6
 41
1.0
 50
0.0
 71
     0
 42
2.5
  3
georgia.TTF
  4

1001
ACAD
1000
Georgia
1071
       18
  0
STYLE
  5
6648
330
3
100
AcDbSymbolTableRecord
100
AcDbTextStyleTableRecord
  2
Georgia170
 70
     0
 40
1.7
 41
1.0
 50
0.0
 71
     0
 42
2.5
  3
georgia.TTF
  4

1001
ACAD
1000
Georgia
1071
       18
  0
STYLE
  5
6649
330
3
100
AcDbSymbolTableRecord
100
AcDbTextStyleTableRecord
  2
Georgia400
 70
     0
 40
4.0
 41
1.0
 50
0.0
 71
     0
 42
2.5
  3
georgia.TTF
  4

1001
ACAD
1000
Georgia
1071
       18
  0
ENDTAB
  0
TABLE
  2
VIEW
  5
6
330
0
100
AcDbSymbolTable
 70
     0
  0
ENDTAB
  0
TABLE
  2
UCS
  5
7
330
0
100
AcDbSymbolTable
 70
     0
  0
ENDTAB
  0
TABLE
  2
APPID
  5
9
330
0
100
AcDbSymbolTable
 70
     4
  0
APPID
  5
12
330
9
100
AcDbSymbolTableRecord
100
AcDbRegAppTableRecord
  2
ACAD
 70
     0
  0
APPID
  5
9E
330
9
100
AcDbSymbolTableRecord
100
AcDbRegAppTableRecord
  2
ACAD_PSEXT
 70
     0
  0
APPID
  5
620A
330
9
100
AcDbSymbolTableRecord
100
AcDbRegAppTableRecord
  2
AC_800
 70
     0
  0
APPID
  5
664A
330
9
100
AcDbSymbolTableRecord
100
AcDbRegAppTableRecord
  2
RAK
 70
     0
  0
ENDTAB
  0
TABLE
  2
DIMSTYLE
  5
A
330
0
100
AcDbSymbolTable
 70
     2
100
AcDbDimStyleTable
 71
     1
340
27
  0
DIMSTYLE
105
27
330
A
100
AcDbSymbolTableRecord
100
AcDbDimStyleTableRecord
  2
ISO-25
 70
     0
 41
2.5
 42
0.625
 43
3.75
 44
1.25
 73
     0
 74
     0
 77
     1
 78
     8
140
2.5
141
2.5
143
0.03937007874016
147
0.625
171
     3
172
     1
271
     2
272
     2
274
     3
278
    44
283
     0
284
     8
340
11
  0
DIMSTYLE
105
6209
330
A
100
AcDbSymbolTableRecord
100
AcDbDimStyleTableRecord
  2
Standard
 70
     0
289
     0
340
11
  0
ENDTAB
  0
TABLE
  2
BLOCK_RECORD
  5
1
330
0
100
AcDbSymbolTable
 70
     1
  0
BLOCK_RECORD
  5
1F
330
1
100
AcDbSymbolTableRecord
100
AcDbBlockTableRecord
  2
*Model_Space
340
22
  0
BLOCK_RECORD
  5
D2
330
1
100
AcDbSymbolTableRecord
100
AcDbBlockTableRecord
  2
*Paper_Space
340
D3
  0
BLOCK_RECORD
  5
D6
330
1
100
AcDbSymbolTableRecord
100
AcDbBlockTableRecord
  2
*Paper_Space0
340
D7
  0
ENDTAB
  0
ENDSEC
  0
SECTION
  2
BLOCKS
  0
BLOCK
  5
20
330
1F
100
AcDbEntity
  8
0
100
AcDbBlockBegin
  2
*Model_Space
 70
     0
 10
0.0
 20
0.0
 30
0.0
  3
*Model_Space
  1

  0
ENDBLK
  5
21
330
1F
100
AcDbEntity
  8
0
100
AcDbBlockEnd
  0
BLOCK
  5
D4
330
D2
100
AcDbEntity
 67
     1
  8
0
100
AcDbBlockBegin
  2
*Paper_Space
 70
     0
 10
0.0
 20
0.0
 30
0.0
  3
*Paper_Space
  1

  0
ENDBLK
  5
D5
330
D2
100
AcDbEntity
 67
     1
  8
0
100
AcDbBlockEnd
  0
BLOCK
  5
D8
330
D6
100
AcDbEntity
  8
0
100
AcDbBlockBegin
  2
*Paper_Space0
 70
     0
 10
0.0
 20
0.0
 30
0.0
  3
*Paper_Space0
  1

  0
ENDBLK
  5
D9
330
D6
100
AcDbEntity
  8
0
100
AcDbBlockEnd
  0
ENDSEC
  0
SECTION
  2
ENTITIES
  0
LINE
  5
6428
330
1F
100
AcDbEntity
  8
zintek
  6
Continuous
 62
     7
100
AcDbLine
 10
127.1286620175968
 20
212.9498812946821
 30
0.0
 11
83.13926657983392
 21
238.0867228670774
 31
0.0
1001
AC_800
1000
ELEMENT_19
1002
{
1071
     1606
1005
6428
1003
Linee
1011
-3.793536292658814
1021
-16.24093981692957
1031
0.0
1011
1.206463707341185
1021
-16.24093981692957
1031
0.0
1011
-3.793536292658814
1021
-11.24093981692957
1031
0.0
1002
}
  0
LINE
  5
6429
330
1F
100
AcDbEntity
  8
zintek
  6
Continuous
 62
     7
100
AcDbLine
 10
83.12244978938684
 20
236.6399246702934
 30
0.0
 11
83.13926657983392
 21
238.0867228670774
 31
0.0
1001
AC_800
1000
ELEMENT_19
1002
{
1071
     1608
1005
6429
1003
0
1011
-3.793536292658814
1021
-16.24093981692957
1031
0.0
1011
1.206463707341185
1021
-16.24093981692957
1031
0.0
1011
-3.793536292658814
1021
-11.24093981692957
1031
0.0
1002
}
  0
LINE
  5
642A
330
1F
100
AcDbEntity
  8
zintek
  6
Continuous
 62
     7
100
AcDbLine
 10
127.0941777895812
 20
210.8899775047968
 30
0.0
 11
83.12244978938684
 21
236.6399246702934
 31
0.0
1001
AC_800
1000
ELEMENT_19
1002
{
1071
     1607
1005
642A
1003
Linee
1011
-3.793536292658814
1021
-16.24093981692957
1031
0.0
1011
1.206463707341185
1021
-16.24093981692957
1031
0.0
1011
-3.793536292658814
1021
-11.24093981692957
1031
0.0
1002
}
  0
LINE
  5
642B
330
1F
100
AcDbEntity
  8
zintek
  6
Continuous
 62
     7
100
AcDbLine
 10
127.1286620175968
 20
212.9498812946821
 30
0.0
 11
127.094058489011
 21
210.8828511252803
 31
0.0
1001
AC_800
1000
ELEMENT_19
1002
{
1071
     1462
1005
642B
1003
0
1011
-3.793536292658814
1021
-16.24093981692957
1031
0.0
1011
1.206463707341185
1021
-16.24093981692957
1031
0.0
1011
-3.793536292658814
1021
-11.24093981692957
1031
0.0
1002
}
  0
LINE
  5
642C
330
1F
100
AcDbEntity
  8
zintek
  6
Continuous
 62
     7
100
AcDbLine
 10
127.2046126167371
 20
212.8891171646965
 30
0.0
 11
127.1699253340859
 21
210.8300278190383
 31
0.0
1001
AC_800
1000
ELEMENT_19
1002
{
1071
     1463
1005
642C
1003
0
1011
-3.793536292658814
1021
-16.24093981692957
1031
0.0
1011
1.206463707341185
1021
-16.24093981692957
1031
0.0
1011
-3.793536292658814
1021
-11.24093981692957
1031
0.0
1002
}
  0
LINE
  5
642D
330
1F
100
AcDbEntity
  8
zintek
  6
Continuous
 62
     7
100
AcDbLine
 10
127.2470174085166
 20
210.8522241185506
 30
0.0
 11
127.2783145167296
 21
212.6985391119917
 31
0.0
1001
AC_800
1000
ELEMENT_19
1002
{
1071
     1468
1005
642D
1003
0
1011
-3.793536292658814
1021
-16.24093981692957
1031
0.0
1011
1.206463707341185
1021
-16.24093981692957
1031
0.0
1011
-3.793536292658814
1021
-11.24093981692957
1031
0.0
1002
}
  0
LINE
  5
642E
330
1F
100
AcDbEntity
  8
zintek
  6
Continuous
 62
     7
100
AcDbLine
 10
127.2470174085166
 20
210.8522241185506
 30
0.0
 11
127.1713270129507
 21
210.9132335877357
 31
0.0
1001
AC_800
1000
ELEMENT_19
1002
{
1071
     1440
1005
642E
1003
0
1011
-3.793536292658814
1021
-16.24093981692957
1031
0.0
1011
1.206463707341185
1021
-16.24093981692957
1031
0.0
1011
-3.793536292658814
1021
-11.24093981692957
1031
0.0
1002
}
  0
MTEXT
  5
642F
330
1F
100
AcDbEntity
  8
zintek
370
     0
100
AcDbMText
 10
75.34648536855172
 20
123.5216532187599
 30
0.0
 40
2.2
 41
26.81158342231118
 71
     4
 72
     1
  1
Intercapedine di ventilazione
  7
Architettonico
 73
     1
 44
1.0
1001
AC_800
1000
ELEMENT_15
1002
{
1071
     1332
1005
642F
1003
Blocchi di Testo
1011
19.9870152200134
1021
-21.55691410566229
1031
0.0
1011
24.9870152200134
1021
-21.55691410566229
1031
0.0
1011
19.9870152200134
1021
-16.55691410566229
1031
0.0
1002
}
1001
ACAD
1000
MTEXTBEGIN
1070
    73
1070
     1
1070
    44
1040
1.0
1070
    74
1070
     0
1000
MTEXTEND
  0
MTEXT
  5
6430
330
1F
100
AcDbEntity
  8
zintek
370
     0
100
AcDbMText
 10
146.2556947687779
 20
84.77915195053432
 30
0.0
 40
2.2
 41
26.81158342231118
 71
     4
 72
     1
  1
Isolamento doppio
  7
Architettonico
 73
     1
 44
1.0
1001
AC_800
1000
ELEMENT_15
1002
{
1071
     1352
1005
6430
1003
Blocchi di Testo
1011
-1.029538121916061
1021
-27.40786196552145
1031
0.0
1011
3.970461878083938
1021
-27.40786196552145
1031
0.0
1011
-1.029538121916061
1021
-22.40786196552145
1031
0.0
1002
}
1001
ACAD
1000
MTEXTBEGIN
1070
    73
1070
     1
1070
    44
1040
1.0
1070
    74
1070
     0
1000
MTEXTEND
  0
MTEXT
  5
6431
330
1F
100
AcDbEntity
  8
zintek
370
     0
100
AcDbMText
 10
157.0425283306198
 20
204.7912103310159
 30
0.0
 40
2.2
 41
23.54689203270455
 71
     4
 72
     1
  1
Isolamento doppio
  7
Architettonico
 73
     1
 44
1.0
1001
AC_800
1000
ELEMENT_15
1002
{
1071
     1351
1005
6431
1003
Blocchi di Testo
1011
-3.793536292658814
1021
-16.24093981692957
1031
0.0
1011
1.206463707341185
1021
-16.24093981692957
1031
0.0
1011
-3.793536292658814
1021
-11.24093981692957
1031
0.0
1002
}
1001
ACAD
1000
MTEXTBEGIN
1070
    73
1070
     1
1070
    44
1040
1.0
1070
    74
1070
     0
1000
MTEXTEND
  0
MTEXT
  5
6432
330
1F
100
AcDbEntity
  8
zintek
370
     0
100
AcDbMText
 10
154.5263228523371
 20
221.9949239776867
 30
0.0
 40
2.2
 41
29.76000000000001
 71
     4
 72
     1
  1
{\fArial|b0|i0|c0|p38;Listelli in legno di abete}
  7
Architettonico
 73
     1
 44
1.0
1001
AC_800
1000
ELEMENT_15
1002
{
1071
     1232
1005
6432
1003
Blocchi di Testo
1011
-0.8149617054651798
1021
-16.24093981692957
1031
0.0
1011
4.18503829453482
1021
-16.24093981692957
1031
0.0
1011
-0.8149617054651798
1021
-11.24093981692957
1031
0.0
1002
}
1001
ACAD
1000
MTEXTBEGIN
1070
    73
1070
     1
1070
    44
1040
1.0
1070
    74
1070
     0
1000
MTEXTEND
  0
MTEXT
  5
6433
330
1F
100
AcDbEntity
  8
zintek
370
     0
100
AcDbMText
 10
147.8763979334766
 20
74.09115616493088
 30
0.0
 40
2.2
 41
26.81158342231118
 71
     4
 72
     1
  1
{\fArial|b0|i0|c0|p38;Freno al vapore}
  7
Architettonico
 73
     1
 44
1.0
1001
AC_800
1000
ELEMENT_15
1002
{
1071
     1252
1005
6433
1003
Blocchi di Testo
1011
-0.1669274826566607
1021
-27.96458517387001
1031
0.0
1011
4.833072517343339
1021
-27.96458517387001
1031
0.0
1011
-0.1669274826566607
1021
-22.96458517387001
1031
0.0
1002
}
1001
ACAD
1000
MTEXTBEGIN
1070
    73
1070
     1
1070
    44
1040
1.0
1070
    74
1070
     0
1000
MTEXTEND
  0
MTEXT
  5
6437
330
1F
100
AcDbEntity
  8
zintek
370
     0
100
AcDbMText
 10
147.3759514287925
 20
61.30081239428577
 30
0.0
 40
2.2
 41
26.81158342231118
 71
     4
 72
     1
  1
{\fArial|b0|i0|c0|p38;Tavolato in legno\Pdi abete}
  7
Architettonico
 73
     1
 44
1.0
1001
AC_800
1000
ELEMENT_15
1002
{
1071
     1248
1005
6437
1003
Blocchi di Testo
1011
-0.3850502785525123
1021
-27.96458517387001
1031
0.0
1011
4.614949721447487
1021
-27.96458517387001
1031
0.0
1011
-0.3850502785525123
1021
-22.96458517387001
1031
0.0
1002
}
1001
ACAD
1000
MTEXTBEGIN
1070
    73
1070
     1
1070
    44
1040
1.0
1070
    74
1070
     0
1000
MTEXTEND
  0
MTEXT
  5
6438
330
1F
100
AcDbEntity
  8
zintek
370
     0
100
AcDbMText
 10
146.367718119044
 20
48.66860713252297
 30
0.0
 40
2.2
 41
26.81158342231118
 71
     4
 72
     1
  1
{\fArial|b0|i0|c0|p38;Travi di struttura}
  7
Architettonico
 73
     1
 44
1.0
1001
AC_800
1000
ELEMENT_15
1002
{
1071
     1253
1005
6438
1003
Blocchi di Testo
1011
2.602804457987645
1021
-34.92632539006243
1031
0.0
1011
7.602804457987645
1021
-34.92632539006243
1031
0.0
1011
2.602804457987645
1021
-29.92632539006243
1031
0.0
1002
}
1001
ACAD
1000
MTEXTBEGIN
1070
    73
1070
     1
1070
    44
1040
1.0
1070
    74
1070
     0
1000
MTEXTEND
  0
MTEXT
  5
6439
330
1F
100
AcDbEntity
  8
zintek
370
     0
100
AcDbMText
 10
162.9912088361123
 20
194.0367995395099
 30
0.0
 40
2.2
 41
24.79139726919996
 71
     4
 72
     1
  1
{\fArial|b0|i0|c0|p38;Freno al vapore}
  7
Architettonico
 73
     1
 44
1.0
1001
AC_800
1000
ELEMENT_15
1002
{
1071
     1241
1005
6439
1003
Blocchi di Testo
1011
-2.176313171995957
1021
-16.24093981692957
1031
0.0
1011
2.823686828004042
1021
-16.24093981692957
1031
0.0
1011
-2.176313171995957
1021
-11.24093981692957
1031
0.0
1002
}
1001
ACAD
1000
MTEXTBEGIN
1070
    73
1070
     1
1070
    44
1040
1.0
1070
    74
1070
     0
1000
MTEXTEND
  0
MTEXT
  5
643A
330
1F
100
AcDbEntity
  8
zintek
370
     0
100
AcDbMText
 10
164.1369338318346
 20
185.3696654626507
 30
0.0
 40
2.2
 41
31.01301920734025
 71
     4
 72
     1
  1
{\fArial|b0|i0|c0|p38;Tavolato in legno\Pdi abete}
  7
Architettonico
 73
     1
 44
1.0
1001
AC_800
1000
ELEMENT_15
1002
{
1071
     1243
1005
643A
1003
Blocchi di Testo
1011
-1.098165787149468
1021
-16.33074888823492
1031
0.0
1011
3.901834212850531
1021
-16.33074888823492
1031
0.0
1011
-1.098165787149468
1021
-11.33074888823492
1031
0.0
1002
}
1001
ACAD
1000
MTEXTBEGIN
1070
    73
1070
     1
1070
    44
1040
1.0
1070
    74
1070
     0
1000
MTEXTEND
  0
MTEXT
  5
643B
330
1F
100
AcDbEntity
  8
zintek
370
     0
100
AcDbMText
 10
156.3255039263412
 20
170.9474409715991
 30
0.0
 40
2.2
 41
20.7
 71
     4
 72
     1
  1
{\fArial|b0|i0|c0|p38;Travi di struttura}
  7
Architettonico
 73
     1
 44
1.0
1001
AC_800
1000
ELEMENT_15
1002
{
1071
     1245
1005
643B
1003
Blocchi di Testo
1011
-3.439919946111217
1021
-17.56646688735375
1031
0.0
1011
1.560080053888782
1021
-17.56646688735375
1031
0.0
1011
-3.439919946111217
1021
-12.56646688735375
1031
0.0
1002
}
1001
ACAD
1000
MTEXTBEGIN
1070
    73
1070
     1
1070
    44
1040
1.0
1070
    74
1070
     0
1000
MTEXTEND
  0
LINE
  5
643C
330
1F
100
AcDbEntity
  8
zintek
370
     0
100
AcDbLine
 10
134.9681462889763
 20
212.2917680210042
 30
0.0
 11
140.6580751976921
 21
230.3634114585957
 31
0.0
1001
AC_800
1000
ELEMENT_19
1002
{
1071
     1236
1005
643C
1003
Linee
1011
-3.793536292658814
1021
-16.24093981692957
1031
0.0
1011
1.206463707341185
1021
-16.24093981692957
1031
0.0
1011
-3.793536292658814
1021
-11.24093981692957
1031
0.0
1002
}
  0
LINE
  5
643D
330
1F
100
AcDbEntity
  8
zintek
370
     0
100
AcDbLine
 10
118.4585562141737
 20
223.4291832303851
 30
0.0
 11
121.7641511105834
 21
242.2633867099282
 31
0.0
1001
AC_800
1000
ELEMENT_19
1002
{
1071
     1228
1005
643D
1003
Linee
1011
-3.793536292658814
1021
-16.24093981692957
1031
0.0
1011
1.206463707341185
1021
-16.24093981692957
1031
0.0
1011
-3.793536292658814
1021
-11.24093981692957
1031
0.0
1002
}
  0
LINE
  5
643E
330
1F
100
AcDbEntity
  8
zintek
  6
Continuous
 62
     7
100
AcDbLine
 10
139.2740597982987
 20
210.6400856152812
 30
0.0
 11
152.2648637701892
 21
219.7485751129049
 31
0.0
1001
AC_800
1000
ELEMENT_19
1002
{
1071
     1237
1005
643E
1003
Linee
1011
-3.793536292658814
1021
-16.24093981692957
1031
0.0
1011
1.206463707341185
1021
-16.24093981692957
1031
0.0
1011
-3.793536292658814
1021
-11.24093981692957
1031
0.0
1002
}
  0
LINE
  5
643F
330
1F
100
AcDbEntity
  8
zintek
  6
Continuous
 62
     7
100
AcDbLine
 10
123.3995346537284
 20
100.4238056072517
 30
0.0
 11
123.3995346537284
 21
93.67380560725157
 31
0.0
1001
AC_800
1000
ELEMENT_19
1002
{
1071
     1660
1005
643F
1003
Linee
1011
-4.093104888850689
1021
-27.96458517387001
1031
0.0
1011
0.9068951111493106
1021
-27.96458517387001
1031
0.0
1011
-4.093104888850689
1021
-22.96458517387001
1031
0.0
1002
}
  0
LINE
  5
6440
330
1F
100
AcDbEntity
  8
zintek
  6
Continuous
 62
     7
100
AcDbLine
 10
144.8398923217698
 20
201.8813833937451
 30
0.0
 11
156.6323488570251
 21
204.6380615448437
 31
0.0
1001
AC_800
1000
ELEMENT_19
1002
{
1071
     1239
1005
6440
1003
Linee
1011
-3.793536292658814
1021
-16.24093981692957
1031
0.0
1011
1.206463707341185
1021
-16.24093981692957
1031
0.0
1011
-3.793536292658814
1021
-11.24093981692957
1031
0.0
1002
}
  0
LINE
  5
6441
330
1F
100
AcDbEntity
  8
zintek
  6
Continuous
 62
     7
100
AcDbLine
 10
139.7143559327455
 20
207.2994932118831
 30
0.0
 11
158.1638367187464
 21
213.8269887151723
 31
0.0
1001
AC_800
1000
ELEMENT_19
1002
{
1071
     1235
1005
6441
1003
Linee
1011
-3.793536292658814
1021
-16.24093981692957
1031
0.0
1011
1.206463707341185
1021
-16.24093981692957
1031
0.0
1011
-3.793536292658814
1021
-11.24093981692957
1031
0.0
1002
}
  0
LINE
  5
6442
330
1F
100
AcDbEntity
  8
zintek
  6
Continuous
 62
   120
100
AcDbLine
 10
113.8263559722912
 20
86.24880560725165
 30
0.0
 11
113.8263559722912
 21
92.99880560725162
 31
0.0
1001
AC_800
1000
ELEMENT_19
1002
{
1071
     1659
1005
6442
1003
Linee
1011
-4.093104888850689
1021
-27.96458517387001
1031
0.0
1011
0.9068951111493106
1021
-27.96458517387001
1031
0.0
1011
-4.093104888850689
1021
-22.96458517387001
1031
0.0
1002
}
  0
LINE
  5
6443
330
1F
100
AcDbEntity
  8
zintek
  6
Continuous
 62
   120
100
AcDbLine
 10
69.9322293509976
 20
86.24880560725165
 30
0.0
 11
69.9322293509976
 21
92.99880560725162
 31
0.0
1001
AC_800
1000
ELEMENT_19
1002
{
1071
     1658
1005
6443
1003
Linee
1011
-4.093104888850689
1021
-27.96458517387001
1031
0.0
1011
0.9068951111493106
1021
-27.96458517387001
1031
0.0
1011
-4.093104888850689
1021
-22.96458517387001
1031
0.0
1002
}
  0
LINE
  5
6444
330
1F
100
AcDbEntity
  8
zintek
  6
Continuous
 62
   120
100
AcDbLine
 10
92.45688181380581
 20
79.49880560725168
 30
0.0
 11
92.45688181380581
 21
86.24880560725165
 31
0.0
1001
AC_800
1000
ELEMENT_19
1002
{
1071
     1657
1005
6444
1003
Linee
1011
-4.093104888850689
1021
-27.96458517387001
1031
0.0
1011
0.9068951111493106
1021
-27.96458517387001
1031
0.0
1011
-4.093104888850689
1021
-22.96458517387001
1031
0.0
1002
}
  0
LINE
  5
6445
330
1F
100
AcDbEntity
  8
zintek
  6
Continuous
 62
   120
100
AcDbLine
 10
133.7392289738832
 20
86.24880560725165
 30
0.0
 11
51.17453465372841
 21
86.24880560725165
 31
0.0
1001
AC_800
1000
ELEMENT_19
1002
{
1071
     1656
1005
6445
1003
Linee
1011
-4.093104888850689
1021
-27.96458517387001
1031
0.0
1011
0.9068951111493106
1021
-27.96458517387001
1031
0.0
1011
-4.093104888850689
1021
-22.96458517387001
1031
0.0
1002
}
  0
LINE
  5
6446
330
1F
100
AcDbEntity
  8
zintek
  6
Continuous
 62
   120
100
AcDbLine
 10
39.72845135189732
 20
215.7949364376716
 30
0.0
 11
41.29589136233244
 21
215.9475444408341
 31
0.0
1001
AC_800
1000
ELEMENT_19
1002
{
1071
     1655
1005
6446
1003
Linee
1011
-3.793536292658814
1021
-16.24093981692957
1031
0.0
1011
1.206463707341185
1021
-16.24093981692957
1031
0.0
1011
-3.793536292658814
1021
-11.24093981692957
1031
0.0
1002
}
  0
LINE
  5
6447
330
1F
100
AcDbEntity
  8
zintek
  6
Continuous
 62
   120
100
AcDbLine
 10
58.11844443506368
 20
194.6275037775246
 30
0.0
 11
59.7954905747722
 21
195.0776131924102
 31
0.0
1001
AC_800
1000
ELEMENT_19
1002
{
1071
     1654
1005
6447
1003
Linee
1011
-3.793536292658814
1021
-16.24093981692957
1031
0.0
1011
1.206463707341185
1021
-16.24093981692957
1031
0.0
1011
-3.793536292658814
1021
-11.24093981692957
1031
0.0
1002
}
  0
LINE
  5
6448
330
1F
100
AcDbEntity
  8
zintek
  6
Continuous
 62
     7
100
AcDbLine
 10
149.7723204703889
 20
182.8869361151077
 30
0.0
 11
158.3599653543059
 21
174.6055757570915
 31
0.0
1001
AC_800
1000
ELEMENT_19
1002
{
1071
     1244
1005
6448
1003
Linee
1011
-3.793536292658814
1021
-16.24093981692957
1031
0.0
1011
1.206463707341185
1021
-16.24093981692957
1031
0.0
1011
-3.793536292658814
1021
-11.24093981692957
1031
0.0
1002
}
  0
LINE
  5
6449
330
1F
100
AcDbEntity
  8
zintek
  6
Continuous
 62
     7
100
AcDbLine
 10
127.9777251092585
 20
213.1896553896321
 30
0.0
 11
83.73692085971532
 21
238.2025927114066
 31
0.0
1001
AC_800
1000
ELEMENT_19
1002
{
1071
     1605
1005
6449
1003
Linee
1011
-3.793536292658814
1021
-16.24093981692957
1031
0.0
1011
1.206463707341185
1021
-16.24093981692957
1031
0.0
1011
-3.793536292658814
1021
-11.24093981692957
1031
0.0
1002
}
  0
LINE
  5
644A
330
1F
100
AcDbEntity
  8
zintek
  6
Continuous
 62
     7
100
AcDbLine
 10
120.5643793733602
 20
106.6540721665983
 30
0.0
 11
119.6730925612703
 21
106.6540721665983
 31
0.0
1001
AC_800
1000
ELEMENT_19
1002
{
1071
     1421
1005
644A
1003
Linee
1011
-4.093104888850689
1021
-27.96458517387001
1031
0.0
1011
0.9068951111493106
1021
-27.96458517387001
1031
0.0
1011
-4.093104888850689
1021
-22.96458517387001
1031
0.0
1002
}
  0
LINE
  5
644B
330
1F
100
AcDbEntity
  8
zintek
  6
Continuous
 62
     7
100
AcDbLine
 10
119.4168793733592
 20
107.1056411996635
 30
0.0
 11
119.4168793733589
 21
103.7988126574915
 31
0.0
1001
AC_800
1000
ELEMENT_19
1002
{
1071
     1419
1005
644B
1003
Linee
1011
-4.093104888850689
1021
-27.96458517387001
1031
0.0
1011
0.9068951111493106
1021
-27.96458517387001
1031
0.0
1011
-4.093104888850689
1021
-22.96458517387001
1031
0.0
1002
}
  0
LINE
  5
644C
330
1F
100
AcDbEntity
  8
zintek
  6
Continuous
 62
     7
100
AcDbLine
 10
119.5518793733591
 20
106.9706411996633
 30
0.0
 11
119.5518793733591
 21
104.1838126574917
 31
0.0
1001
AC_800
1000
ELEMENT_19
1002
{
1071
     1405
1005
644C
1003
Linee
1011
-4.093104888850689
1021
-27.96458517387001
1031
0.0
1011
0.9068951111493106
1021
-27.96458517387001
1031
0.0
1011
-4.093104888850689
1021
-22.96458517387001
1031
0.0
1002
}
  0
LINE
  5
644D
330
1F
100
AcDbEntity
  8
zintek
  6
Continuous
 62
     7
100
AcDbLine
 10
120.5006106437965
 20
106.9706411996635
 30
0.0
 11
120.5006106437965
 21
107.1056411996635
 31
0.0
1001
AC_800
1000
ELEMENT_19
1002
{
1071
     1404
1005
644D
1003
Linee
1011
-4.093104888850689
1021
-27.96458517387001
1031
0.0
1011
0.9068951111493106
1021
-27.96458517387001
1031
0.0
1011
-4.093104888850689
1021
-22.96458517387001
1031
0.0
1002
}
  0
LINE
  5
644E
330
1F
100
AcDbEntity
  8
zintek
  6
Continuous
 62
     7
100
AcDbLine
 10
78.91687937335911
 20
107.1056411996635
 30
0.0
 11
78.91687937335911
 21
103.7988126574915
 31
0.0
1001
AC_800
1000
ELEMENT_19
1002
{
1071
     1305
1005
644E
1003
Linee
1011
-4.093104888850689
1021
-27.96458517387001
1031
0.0
1011
0.9068951111493106
1021
-27.96458517387001
1031
0.0
1011
-4.093104888850689
1021
-22.96458517387001
1031
0.0
1002
}
  0
LINE
  5
644F
330
1F
100
AcDbEntity
  8
zintek
  6
Continuous
 62
     7
100
AcDbLine
 10
51.17453465372841
 20
104.1838126574917
 30
0.0
 11
78.7143793733602
 21
104.1838126574917
 31
0.0
1001
AC_800
1000
ELEMENT_19
1002
{
1071
     1325
1005
644F
1003
Linee
1011
-4.093104888850689
1021
-27.96458517387001
1031
0.0
1011
0.9068951111493106
1021
-27.96458517387001
1031
0.0
1011
-4.093104888850689
1021
-22.96458517387001
1031
0.0
1002
}
  0
LINE
  5
6450
330
1F
100
AcDbEntity
  8
zintek
  6
Continuous
 62
     7
100
AcDbLine
 10
119.2143793733603
 20
104.1838126574917
 30
0.0
 11
79.05187937335904
 21
104.1838126574917
 31
0.0
1001
AC_800
1000
ELEMENT_19
1002
{
1071
     1322
1005
6450
1003
Linee
1011
-4.093104888850689
1021
-27.96458517387001
1031
0.0
1011
0.9068951111493106
1021
-27.96458517387001
1031
0.0
1011
-4.093104888850689
1021
-22.96458517387001
1031
0.0
1002
}
  0
LINE
  5
6451
330
1F
100
AcDbEntity
  8
zintek
370
     0
100
AcDbLine
 10
133.7392289738832
 20
93.33630560725159
 30
0.0
 11
144.9136253834032
 21
94.2093529929979
 31
0.0
1001
AC_800
1000
ELEMENT_19
1002
{
1071
     1258
1005
6451
1003
Linee
1011
-4.093104888850689
1021
-27.96458517387001
1031
0.0
1011
0.9068951111493106
1021
-27.96458517387001
1031
0.0
1011
-4.093104888850689
1021
-22.96458517387001
1031
0.0
1002
}
  0
LINE
  5
6452
330
1F
100
AcDbEntity
  8
zintek
  6
Continuous
 62
     7
100
AcDbLine
 10
46.78551320240109
 20
195.8597297061073
 30
0.0
 11
46.78551320240109
 21
194.0192061750227
 31
0.0
1001
AC_800
1000
ELEMENT_19
1002
{
1071
     1179
1005
6452
1003
Linee
1011
-3.793536292658814
1021
-16.24093981692957
1031
0.0
1011
1.206463707341185
1021
-16.24093981692957
1031
0.0
1011
-3.793536292658814
1021
-11.24093981692957
1031
0.0
1002
}
  0
LINE
  5
6453
330
1F
100
AcDbEntity
  8
zintek
  6
Continuous
 62
     7
100
AcDbLine
 10
49.81194473209905
 20
191.9830846377712
 30
0.0
 11
49.81194473209905
 21
190.0916486619714
 31
0.0
1001
AC_800
1000
ELEMENT_19
1002
{
1071
     1178
1005
6453
1003
Linee
1011
-3.793536292658814
1021
-16.24093981692957
1031
0.0
1011
1.206463707341185
1021
-16.24093981692957
1031
0.0
1011
-3.793536292658814
1021
-11.24093981692957
1031
0.0
1002
}
  0
LINE
  5
6454
330
1F
100
AcDbEntity
  8
zintek
  6
Continuous
 62
     7
100
AcDbLine
 10
53.04676001426447
 20
187.8395146982138
 30
0.0
 11
53.04676001426447
 21
185.8943953981357
 31
0.0
1001
AC_800
1000
ELEMENT_19
1002
{
1071
     1177
1005
6454
1003
Linee
1011
-3.793536292658814
1021
-16.24093981692957
1031
0.0
1011
1.206463707341185
1021
-16.24093981692957
1031
0.0
1011
-3.793536292658814
1021
-11.24093981692957
1031
0.0
1002
}
  0
LINE
  5
6455
330
1F
100
AcDbEntity
  8
zintek
  6
Continuous
 62
     7
100
AcDbLine
 10
56.51224869319879
 20
183.4004684271402
 30
0.0
 11
56.51224869319879
 21
181.3986796949448
 31
0.0
1001
AC_800
1000
ELEMENT_19
1002
{
1071
     1176
1005
6455
1003
Linee
1011
-3.793536292658814
1021
-16.24093981692957
1031
0.0
1011
1.206463707341185
1021
-16.24093981692957
1031
0.0
1011
-3.793536292658814
1021
-11.24093981692957
1031
0.0
1002
}
  0
LINE
  5
6456
330
1F
100
AcDbEntity
  8
zintek
  6
Continuous
 62
     7
100
AcDbLine
 10
60.23399687947199
 20
178.6331718237556
 30
0.0
 11
60.23399687947199
 21
176.5714929027171
 31
0.0
1001
AC_800
1000
ELEMENT_19
1002
{
1071
     1162
1005
6456
1003
Linee
1011
-3.793536292658814
1021
-16.24093981692957
1031
0.0
1011
1.206463707341185
1021
-16.24093981692957
1031
0.0
1011
-3.793536292658814
1021
-11.24093981692957
1031
0.0
1002
}
  0
LINE
  5
6457
330
1F
100
AcDbEntity
  8
zintek
  6
Continuous
 62
     7
100
AcDbLine
 10
64.24151994882214
 20
173.4998177760631
 30
0.0
 11
64.24151994882214
 21
171.3747725781474
 31
0.0
1001
AC_800
1000
ELEMENT_19
1002
{
1071
     1161
1005
6457
1003
Linee
1011
-3.793536292658814
1021
-16.24093981692957
1031
0.0
1011
1.206463707341185
1021
-16.24093981692957
1031
0.0
1011
-3.793536292658814
1021
-11.24093981692957
1031
0.0
1002
}
  0
LINE
  5
6458
330
1F
100
AcDbEntity
  8
zintek
  6
Continuous
 62
     7
100
AcDbLine
 10
68.56904692954436
 20
167.9565613160092
 30
0.0
 11
68.56904692954436
 21
165.764396787818
 31
0.0
1001
AC_800
1000
ELEMENT_19
1002
{
1071
     1160
1005
6458
1003
Linee
1011
-3.793536292658814
1021
-16.24093981692957
1031
0.0
1011
1.206463707341185
1021
-16.24093981692957
1031
0.0
1011
-3.793536292658814
1021
-11.24093981692957
1031
0.0
1002
}
  0
LINE
  5
6459
330
1F
100
AcDbEntity
  8
zintek
  6
Continuous
 62
     7
100
AcDbLine
 10
79.05187937335904
 20
106.9706411996633
 30
0.0
 11
79.05187937335904
 21
104.1838126574917
 31
0.0
1001
AC_800
1000
ELEMENT_19
1002
{
1071
     1319
1005
6459
1003
Linee
1011
-4.093104888850689
1021
-27.96458517387001
1031
0.0
1011
0.9068951111493106
1021
-27.96458517387001
1031
0.0
1011
-4.093104888850689
1021
-22.96458517387001
1031
0.0
1002
}
  0
LINE
  5
645A
330
1F
100
AcDbEntity
  8
zintek
  6
Continuous
 62
     7
100
AcDbLine
 10
80.00061064379645
 20
106.9706411996635
 30
0.0
 11
80.00061064379645
 21
107.1056411996635
 31
0.0
1001
AC_800
1000
ELEMENT_19
1002
{
1071
     1320
1005
645A
1003
Linee
1011
-4.093104888850689
1021
-27.96458517387001
1031
0.0
1011
0.9068951111493106
1021
-27.96458517387001
1031
0.0
1011
-4.093104888850689
1021
-22.96458517387001
1031
0.0
1002
}
  0
LINE
  5
645B
330
1F
100
AcDbEntity
  8
zintek
  6
Continuous
 62
     7
100
AcDbLine
 10
145.0202038835204
 20
194.1669231855961
 30
0.0
 11
161.3739857154494
 21
192.8153709680812
 31
0.0
1001
AC_800
1000
ELEMENT_19
1002
{
1071
     1240
1005
645B
1003
Linee
1011
-3.793536292658814
1021
-16.24093981692957
1031
0.0
1011
1.206463707341185
1021
-16.24093981692957
1031
0.0
1011
-3.793536292658814
1021
-11.24093981692957
1031
0.0
1002
}
  0
LINE
  5
645C
330
1F
100
AcDbEntity
  8
zintek
  6
Continuous
 62
     7
100
AcDbLine
 10
36.40687146184808
 20
209.1540368545522
 30
0.0
 11
36.40687146184808
 21
207.62481737543
 31
0.0
1001
AC_800
1000
ELEMENT_19
1002
{
1071
     1185
1005
645C
1003
Linee
1011
-3.793536292658814
1021
-16.24093981692957
1031
0.0
1011
1.206463707341185
1021
-16.24093981692957
1031
0.0
1011
-3.793536292658814
1021
-11.24093981692957
1031
0.0
1002
}
  0
LINE
  5
645D
330
1F
100
AcDbEntity
  8
zintek
  6
Continuous
 62
     7
100
AcDbLine
 10
41.28213260312555
 20
202.9091716148385
 30
0.0
 11
41.28502475003165
 21
201.2836436359605
 31
0.0
1001
AC_800
1000
ELEMENT_19
1002
{
1071
     1181
1005
645D
1003
Linee
1011
-3.793536292658814
1021
-16.24093981692957
1031
0.0
1011
1.206463707341185
1021
-16.24093981692957
1031
0.0
1011
-3.793536292658814
1021
-11.24093981692957
1031
0.0
1002
}
  0
LINE
  5
645E
330
1F
100
AcDbEntity
  8
zintek
  6
Continuous
 62
     7
100
AcDbLine
 10
38.77290538325883
 20
206.1233144863285
 30
0.0
 11
38.77290538325883
 21
204.5491796734562
 31
0.0
1001
AC_800
1000
ELEMENT_19
1002
{
1071
     1183
1005
645E
1003
Linee
1011
-3.793536292658814
1021
-16.24093981692957
1031
0.0
1011
1.206463707341185
1021
-16.24093981692957
1031
0.0
1011
-3.793536292658814
1021
-11.24093981692957
1031
0.0
1002
}
  0
LINE
  5
645F
330
1F
100
AcDbEntity
  8
zintek
  6
Continuous
 62
     7
100
AcDbLine
 10
43.94795792508211
 20
199.4944376332508
 30
0.0
 11
43.94795792508211
 21
197.8220628036205
 31
0.0
1001
AC_800
1000
ELEMENT_19
1002
{
1071
     1180
1005
645F
1003
Linee
1011
-3.793536292658814
1021
-16.24093981692957
1031
0.0
1011
1.206463707341185
1021
-16.24093981692957
1031
0.0
1011
-3.793536292658814
1021
-11.24093981692957
1031
0.0
1002
}
  0
LINE
  5
6460
330
1F
100
AcDbEntity
  8
zintek
  6
Continuous
 62
     7
100
AcDbLine
 10
34.17211352773814
 20
212.01660395352
 30
0.0
 11
34.17211352773825
 21
210.5298077454897
 31
0.0
1001
AC_800
1000
ELEMENT_19
1002
{
1071
     1186
1005
6460
1003
Linee
1011
-3.793536292658814
1021
-16.24093981692957
1031
0.0
1011
1.206463707341185
1021
-16.24093981692957
1031
0.0
1011
-3.793536292658814
1021
-11.24093981692957
1031
0.0
1002
}
  0
LINE
  5
6461
330
1F
100
AcDbEntity
  8
zintek
  6
Continuous
 62
     7
100
AcDbLine
 10
148.9613695798787
 20
189.236874661309
 30
0.0
 11
162.0384048928847
 21
183.4270591051647
 31
0.0
1001
AC_800
1000
ELEMENT_19
1002
{
1071
     1242
1005
6461
1003
Linee
1011
-3.196694726099053
1021
-15.83049810286391
1031
0.0
1011
1.803305273900946
1021
-15.83049810286391
1031
0.0
1011
-3.196694726099053
1021
-10.83049810286391
1031
0.0
1002
}
  0
LINE
  5
6466
330
1F
100
AcDbEntity
  8
zintek
  6
Continuous
 62
     7
100
AcDbLine
 10
127.1699254000552
 20
210.8300317350857
 30
0.0
 11
93.73213858290773
 21
201.2026460836031
 31
0.0
1001
AC_800
1000
ELEMENT_19
1002
{
1071
     1662
1005
6466
1003
0
1011
-3.793536292658814
1021
-16.24093981692957
1031
0.0
1011
1.206463707341185
1021
-16.24093981692957
1031
0.0
1011
-3.793536292658814
1021
-11.24093981692957
1031
0.0
1002
}
  0
LINE
  5
6467
330
1F
100
AcDbEntity
  8
zintek
  6
Continuous
 62
     7
100
AcDbLine
 10
135.105954780004
 20
213.1149681096152
 30
0.0
 11
127.2470138461773
 21
210.8522269899376
 31
0.0
1001
AC_800
1000
ELEMENT_19
1002
{
1071
     1661
1005
6467
1003
0
1011
-3.793536292658814
1021
-16.24093981692957
1031
0.0
1011
1.206463707341185
1021
-16.24093981692957
1031
0.0
1011
-3.793536292658814
1021
-11.24093981692957
1031
0.0
1002
}
  0
LINE
  5
6468
330
1F
100
AcDbEntity
  8
zintek
  6
Continuous
 62
     7
100
AcDbLine
 10
93.65504650847702
 20
201.1804497840908
 30
0.0
 11
68.7521202554729
 21
193.9755102331988
 31
0.0
1001
AC_800
1000
ELEMENT_19
1002
{
1071
      973
1005
6468
1003
0
1011
-3.793536292658814
1021
-16.24093981692957
1031
0.0
1011
1.206463707341185
1021
-16.24093981692957
1031
0.0
1011
-3.793536292658814
1021
-11.24093981692957
1031
0.0
1002
}
  0
LINE
  5
6469
330
1F
100
AcDbEntity
  8
zintek
  6
Continuous
 62
   120
100
AcDbLine
 10
136.4560255814669
 20
205.1804296917949
 30
0.0
 11
139.3974729053173
 21
203.4310924679735
 31
0.0
1001
AC_800
1000
ELEMENT_19
1002
{
1071
     1653
1005
6469
1003
0
1011
-3.793536292658814
1021
-16.24093981692957
1031
0.0
1011
1.206463707341185
1021
-16.24093981692957
1031
0.0
1011
-3.793536292658814
1021
-11.24093981692957
1031
0.0
1002
}
  0
LINE
  5
646A
330
1F
100
AcDbEntity
  8
zintek
  6
Continuous
 62
   120
100
AcDbLine
 10
110.8870477740931
 20
197.1986718607741
 30
0.0
 11
114.0445186705063
 21
195.3180536930042
 31
0.0
1001
AC_800
1000
ELEMENT_19
1002
{
1071
     1652
1005
646A
1003
0
1011
-3.793536292658814
1021
-16.24093981692957
1031
0.0
1011
1.206463707341185
1021
-16.24093981692957
1031
0.0
1011
-3.793536292658814
1021
-11.24093981692957
1031
0.0
1002
}
  0
LINE
  5
646B
330
1F
100
AcDbEntity
  8
zintek
  6
Continuous
 62
   120
100
AcDbLine
 10
82.45303242265311
 20
188.3225475820291
 30
0.0
 11
85.45564210032756
 21
186.1695078470845
 31
0.0
1001
AC_800
1000
ELEMENT_19
1002
{
1071
     1651
1005
646B
1003
0
1011
-3.793536292658814
1021
-16.24093981692957
1031
0.0
1011
1.206463707341185
1021
-16.24093981692957
1031
0.0
1011
-3.793536292658814
1021
-11.24093981692957
1031
0.0
1002
}
  0
LINE
  5
646C
330
1F
100
AcDbEntity
  8
zintek
  6
Continuous
 62
     7
100
AcDbLine
 10
46.8930672743179
 20
200.7239854375231
 30
0.0
 11
46.77978432032296
 21
207.6786410645073
 31
0.0
1001
AC_800
1000
ELEMENT_19
1002
{
1071
     1645
1005
646C
1003
0
1011
-3.793536292658814
1021
-16.24093981692957
1031
0.0
1011
1.206463707341185
1021
-16.24093981692957
1031
0.0
1011
-3.793536292658814
1021
-11.24093981692957
1031
0.0
1002
}
  0
LINE
  5
646D
330
1F
100
AcDbEntity
  8
zintek
  6
Continuous
 62
   120
100
AcDbLine
 10
130.8790950525745
 20
193.2458949880663
 30
0.0
 11
130.8187117179122
 21
196.9529425479722
 31
0.0
1001
AC_800
1000
ELEMENT_19
1002
{
1071
     1644
1005
646D
1003
0
1011
-3.793536292658814
1021
-16.24093981692957
1031
0.0
1011
1.206463707341185
1021
-16.24093981692957
1031
0.0
1011
-3.793536292658814
1021
-11.24093981692957
1031
0.0
1002
}
  0
LINE
  5
646E
330
1F
100
AcDbEntity
  8
zintek
  6
Continuous
 62
   120
100
AcDbLine
 10
100.4180290972551
 20
182.8469178465909
 30
0.0
 11
100.3523421184886
 21
186.8795661876428
 31
0.0
1001
AC_800
1000
ELEMENT_19
1002
{
1071
     1643
1005
646E
1003
0
1011
-3.793536292658814
1021
-16.24093981692957
1031
0.0
1011
1.206463707341185
1021
-16.24093981692957
1031
0.0
1011
-3.793536292658814
1021
-11.24093981692957
1031
0.0
1002
}
  0
LINE
  5
646F
330
1F
100
AcDbEntity
  8
zintek
  6
Continuous
 62
   120
100
AcDbLine
 10
114.1078880200437
 20
191.4276890106119
 30
0.0
 11
114.0445186705063
 21
195.3180536930042
 31
0.0
1001
AC_800
1000
ELEMENT_19
1002
{
1071
     1647
1005
646F
1003
0
1011
-3.793536292658814
1021
-16.24093981692957
1031
0.0
1011
1.206463707341185
1021
-16.24093981692957
1031
0.0
1011
-3.793536292658814
1021
-11.24093981692957
1031
0.0
1002
}
  0
LINE
  5
6470
330
1F
100
AcDbEntity
  8
zintek
  6
Continuous
 62
   120
100
AcDbLine
 10
34.5360139426989
 20
218.8150943767456
 30
0.0
 11
46.83648700893605
 21
204.1975553537188
 31
0.0
1001
AC_800
1000
ELEMENT_19
1002
{
1071
     1642
1005
6470
1003
0
1011
-3.793536292658814
1021
-16.24093981692957
1031
0.0
1011
1.206463707341185
1021
-16.24093981692957
1031
0.0
1011
-3.793536292658814
1021
-11.24093981692957
1031
0.0
1002
}
  0
LINE
  5
6471
330
1F
100
AcDbEntity
  8
zintek
  6
Continuous
 62
   120
100
AcDbLine
 10
39.78078034319145
 20
212.5823603092811
 30
0.0
 11
39.72845135189732
 21
215.7949364376716
 31
0.0
1001
AC_800
1000
ELEMENT_19
1002
{
1071
     1650
1005
6471
1003
0
1011
-3.793536292658814
1021
-16.24093981692957
1031
0.0
1011
1.206463707341185
1021
-16.24093981692957
1031
0.0
1011
-3.793536292658814
1021
-11.24093981692957
1031
0.0
1002
}
  0
LINE
  5
6472
330
1F
100
AcDbEntity
  8
zintek
  6
Continuous
 62
   120
100
AcDbLine
 10
69.88597251906515
 20
176.8061898273135
 30
0.0
 11
146.6882303921679
 21
202.2000276573866
 31
0.0
1001
AC_800
1000
ELEMENT_19
1002
{
1071
     1641
1005
6472
1003
0
1011
-3.793536292658814
1021
-16.24093981692957
1031
0.0
1011
1.206463707341185
1021
-16.24093981692957
1031
0.0
1011
-3.793536292658814
1021
-11.24093981692957
1031
0.0
1002
}
  0
LINE
  5
6473
330
1F
100
AcDbEntity
  8
zintek
  6
Continuous
 62
   120
100
AcDbLine
 10
58.17502470044553
 20
190.7231534931401
 30
0.0
 11
58.11844443506368
 21
194.6275037775246
 31
0.0
1001
AC_800
1000
ELEMENT_19
1002
{
1071
     1649
1005
6473
1003
0
1011
-3.793536292658814
1021
-16.24093981692957
1031
0.0
1011
1.206463707341185
1021
-16.24093981692957
1031
0.0
1011
-3.793536292658814
1021
-11.24093981692957
1031
0.0
1002
}
  0
LINE
  5
6474
330
1F
100
AcDbEntity
  8
zintek
  6
Continuous
 62
     7
100
AcDbLine
 10
127.3253576842396
 20
210.9493976659549
 30
0.0
 11
127.35415630853
 21
212.6378466973802
 31
0.0
1001
AC_800
1000
ELEMENT_19
1002
{
1071
     1465
1005
6474
1003
0
1011
-3.793536292658814
1021
-16.24093981692957
1031
0.0
1011
1.206463707341185
1021
-16.24093981692957
1031
0.0
1011
-3.793536292658814
1021
-11.24093981692957
1031
0.0
1002
}
  0
LINE
  5
6475
330
1F
100
AcDbEntity
  8
zintek
  6
Continuous
 62
     7
100
AcDbLine
 10
127.1007496908183
 20
210.8847762350188
 30
0.0
 11
93.81060041909666
 21
201.3069466607131
 31
0.0
1001
AC_800
1000
ELEMENT_19
1002
{
1071
     1603
1005
6475
1003
0
1011
-3.793536292658814
1021
-16.24093981692957
1031
0.0
1011
1.206463707341185
1021
-16.24093981692957
1031
0.0
1011
-3.793536292658814
1021
-11.24093981692957
1031
0.0
1002
}
  0
LINE
  5
6476
330
1F
100
AcDbEntity
  8
zintek
  6
Continuous
 62
     7
100
AcDbLine
 10
127.3537222238352
 20
212.6123965274218
 30
0.0
 11
127.47579894046
 21
212.5157664144752
 31
0.0
1001
AC_800
1000
ELEMENT_19
1002
{
1071
     1475
1005
6476
1003
0
1011
-3.793536292658814
1021
-16.24093981692957
1031
0.0
1011
1.206463707341185
1021
-16.24093981692957
1031
0.0
1011
-3.793536292658814
1021
-11.24093981692957
1031
0.0
1002
}
  0
LINE
  5
6477
330
1F
100
AcDbEntity
  8
zintek
  6
Continuous
 62
     7
100
AcDbLine
 10
127.352313016464
 20
212.5297753995169
 30
0.0
 11
127.4743298810336
 21
212.4331926626056
 31
0.0
1001
AC_800
1000
ELEMENT_19
1002
{
1071
     1474
1005
6477
1003
0
1011
-3.793536292658814
1021
-16.24093981692957
1031
0.0
1011
1.206463707341185
1021
-16.24093981692957
1031
0.0
1011
-3.793536292658814
1021
-11.24093981692957
1031
0.0
1002
}
  0
LINE
  5
6478
330
1F
100
AcDbEntity
  8
zintek
  6
Continuous
 62
     7
100
AcDbLine
 10
127.7626280303091
 20
212.7534593803717
 30
0.0
 11
127.7624470423385
 21
212.8354635620068
 31
0.0
1001
AC_800
1000
ELEMENT_19
1002
{
1071
     1473
1005
6478
1003
0
1011
-3.793536292658814
1021
-16.24093981692957
1031
0.0
1011
1.206463707341185
1021
-16.24093981692957
1031
0.0
1011
-3.793536292658814
1021
-11.24093981692957
1031
0.0
1002
}
  0
LINE
  5
6479
330
1F
100
AcDbEntity
  8
zintek
  6
Continuous
 62
     7
100
AcDbLine
 10
127.8911767427653
 20
212.6330684590326
 30
0.0
 11
127.8992245160433
 21
213.0854224086717
 31
0.0
1001
AC_800
1000
ELEMENT_19
1002
{
1071
     1472
1005
6479
1003
0
1011
-3.793536292658814
1021
-16.24093981692957
1031
0.0
1011
1.206463707341185
1021
-16.24093981692957
1031
0.0
1011
-3.793536292658814
1021
-11.24093981692957
1031
0.0
1002
}
  0
LINE
  5
647A
330
1F
100
AcDbEntity
  8
zintek
  6
Continuous
 62
     7
100
AcDbLine
 10
127.2783145167296
 20
212.6985391119918
 30
0.0
 11
127.7624470423385
 21
212.8354635620068
 31
0.0
1001
AC_800
1000
ELEMENT_19
1002
{
1071
     1471
1005
647A
1003
0
1011
-3.793536292658814
1021
-16.24093981692957
1031
0.0
1011
1.206463707341185
1021
-16.24093981692957
1031
0.0
1011
-3.793536292658814
1021
-11.24093981692957
1031
0.0
1002
}
  0
LINE
  5
647B
330
1F
100
AcDbEntity
  8
zintek
  6
Continuous
 62
     7
100
AcDbLine
 10
127.9666777867598
 20
212.5723357954122
 30
0.0
 11
127.9777251092585
 21
213.1896553896321
 31
0.0
1001
AC_800
1000
ELEMENT_19
1002
{
1071
     1470
1005
647B
1003
0
1011
-3.793536292658814
1021
-16.24093981692957
1031
0.0
1011
1.206463707341185
1021
-16.24093981692957
1031
0.0
1011
-3.793536292658814
1021
-11.24093981692957
1031
0.0
1002
}
  0
LINE
  5
647C
330
1F
100
AcDbEntity
  8
zintek
  6
Continuous
 62
     7
100
AcDbLine
 10
127.7452838405358
 20
212.748550329862
 30
0.0
 11
127.8911767427653
 21
212.6330684590326
 31
0.0
1001
AC_800
1000
ELEMENT_19
1002
{
1071
     1469
1005
647C
1003
0
1011
-3.793536292658814
1021
-16.24093981692957
1031
0.0
1011
1.206463707341185
1021
-16.24093981692957
1031
0.0
1011
-3.793536292658814
1021
-11.24093981692957
1031
0.0
1002
}
  0
LINE
  5
647D
330
1F
100
AcDbEntity
  8
zintek
  6
Continuous
 62
     7
100
AcDbLine
 10
127.4743298810336
 20
212.4331926626056
 30
0.0
 11
127.47579894046
 21
212.5157664144752
 31
0.0
1001
AC_800
1000
ELEMENT_19
1002
{
1071
     1467
1005
647D
1003
0
1011
-3.793536292658814
1021
-16.24093981692957
1031
0.0
1011
1.206463707341185
1021
-16.24093981692957
1031
0.0
1011
-3.793536292658814
1021
-11.24093981692957
1031
0.0
1002
}
  0
LINE
  5
647E
330
1F
100
AcDbEntity
  8
zintek
  6
Continuous
 62
     7
100
AcDbLine
 10
127.2783145167296
 20
212.6985391119917
 30
0.0
 11
127.2024141920159
 21
212.7586153618883
 31
0.0
1001
AC_800
1000
ELEMENT_19
1002
{
1071
     1466
1005
647E
1003
0
1011
-3.793536292658814
1021
-16.24093981692957
1031
0.0
1011
1.206463707341185
1021
-16.24093981692957
1031
0.0
1011
-3.793536292658814
1021
-11.24093981692957
1031
0.0
1002
}
  0
LINE
  5
647F
330
1F
100
AcDbEntity
  8
zintek
  6
Continuous
 62
     7
100
AcDbLine
 10
127.9666777867598
 20
212.5723357954122
 30
0.0
 11
127.4743298810336
 21
212.4331926626056
 31
0.0
1001
AC_800
1000
ELEMENT_19
1002
{
1071
     1464
1005
647F
1003
0
1011
-3.793536292658814
1021
-16.24093981692957
1031
0.0
1011
1.206463707341185
1021
-16.24093981692957
1031
0.0
1011
-3.793536292658814
1021
-11.24093981692957
1031
0.0
1002
}
  0
LINE
  5
6480
330
1F
100
AcDbEntity
  8
zintek
  6
Continuous
 62
     7
100
AcDbLine
 10
127.9777251092585
 20
213.1896553896321
 30
0.0
 11
127.1286620175968
 21
212.9498812946821
 31
0.0
1001
AC_800
1000
ELEMENT_19
1002
{
1071
     1459
1005
6480
1003
0
1011
-3.793536292658814
1021
-16.24093981692957
1031
0.0
1011
1.206463707341185
1021
-16.24093981692957
1031
0.0
1011
-3.793536292658814
1021
-11.24093981692957
1031
0.0
1002
}
  0
LINE
  5
6481
330
1F
100
AcDbEntity
  8
zintek
  6
Continuous
 62
     7
100
AcDbLine
 10
127.8992245160433
 20
213.0854224086717
 30
0.0
 11
127.2046126167371
 21
212.8891171646965
 31
0.0
1001
AC_800
1000
ELEMENT_19
1002
{
1071
     1448
1005
6481
1003
0
1011
-3.793536292658814
1021
-16.24093981692957
1031
0.0
1011
1.206463707341185
1021
-16.24093981692957
1031
0.0
1011
-3.793536292658814
1021
-11.24093981692957
1031
0.0
1002
}
  0
LINE
  5
6482
330
1F
100
AcDbEntity
  8
zintek
  6
Continuous
 62
     7
100
AcDbLine
 10
127.7624470423385
 20
212.8354635620068
 30
0.0
 11
127.5657253523184
 21
212.9911717418376
 31
0.0
1001
AC_800
1000
ELEMENT_19
1002
{
1071
     1446
1005
6482
1003
0
1011
-3.793536292658814
1021
-16.24093981692957
1031
0.0
1011
1.206463707341185
1021
-16.24093981692957
1031
0.0
1011
-3.793536292658814
1021
-11.24093981692957
1031
0.0
1002
}
  0
LINE
  5
6483
330
1F
100
AcDbEntity
  8
zintek
  6
Continuous
 62
     7
100
AcDbLine
 10
127.8911767427653
 20
212.6330684590326
 30
0.0
 11
127.47579894046
 21
212.5157664144752
 31
0.0
1001
AC_800
1000
ELEMENT_19
1002
{
1071
     1445
1005
6483
1003
0
1011
-3.793536292658814
1021
-16.24093981692957
1031
0.0
1011
1.206463707341185
1021
-16.24093981692957
1031
0.0
1011
-3.793536292658814
1021
-11.24093981692957
1031
0.0
1002
}
  0
LINE
  5
6484
330
1F
100
AcDbEntity
  8
zintek
  6
Continuous
 62
     7
100
AcDbLine
 10
127.1713270129507
 20
210.9132335877355
 30
0.0
 11
127.2470174085166
 21
210.8522241185505
 31
0.0
1001
AC_800
1000
ELEMENT_19
1002
{
1071
     1444
1005
6484
1003
0
1011
-3.793536292658814
1021
-16.24093981692957
1031
0.0
1011
1.206463707341185
1021
-16.24093981692957
1031
0.0
1011
-3.793536292658814
1021
-11.24093981692957
1031
0.0
1002
}
  0
LINE
  5
6485
330
1F
100
AcDbEntity
  8
zintek
  6
Continuous
 62
     7
100
AcDbLine
 10
127.35415630853
 20
212.6378466973801
 30
0.0
 11
127.7626280303091
 21
212.7534593803717
 31
0.0
1001
AC_800
1000
ELEMENT_19
1002
{
1071
     1443
1005
6485
1003
0
1011
-3.793536292658814
1021
-16.24093981692957
1031
0.0
1011
1.206463707341185
1021
-16.24093981692957
1031
0.0
1011
-3.793536292658814
1021
-11.24093981692957
1031
0.0
1002
}
  0
LINE
  5
6486
330
1F
100
AcDbEntity
  8
zintek
  6
Continuous
 62
     7
100
AcDbLine
 10
58.3506556308277
 20
231.8855278874952
 30
0.0
 11
83.15429330340924
 21
236.6212770337113
 31
0.0
1001
AC_800
1000
ELEMENT_19
1002
{
1071
     1609
1005
6486
1003
0
1011
-3.793536292658814
1021
-16.24093981692957
1031
0.0
1011
1.206463707341185
1021
-16.24093981692957
1031
0.0
1011
-3.793536292658814
1021
-11.24093981692957
1031
0.0
1002
}
  0
LINE
  5
6487
330
1F
100
AcDbEntity
  8
zintek
  6
Continuous
 62
     7
100
AcDbLine
 10
83.16386578381502
 20
238.0953037195207
 30
0.0
 11
83.73692085971532
 21
238.2025927114066
 31
0.0
1001
AC_800
1000
ELEMENT_19
1002
{
1071
      729
1005
6487
1003
0
1011
-3.793536292658814
1021
-16.24093981692957
1031
0.0
1011
1.206463707341185
1021
-16.24093981692957
1031
0.0
1011
-3.793536292658814
1021
-11.24093981692957
1031
0.0
1002
}
  0
LINE
  5
6488
330
1F
100
AcDbEntity
  8
zintek
  6
Continuous
 62
     7
100
AcDbLine
 10
79.17309256127021
 20
106.5190721665984
 30
0.0
 11
79.17309256127021
 21
106.6540721665983
 31
0.0
1001
AC_800
1000
ELEMENT_19
1002
{
1071
     1397
1005
6488
1003
0
1011
-4.093104888850689
1021
-27.96458517387001
1031
0.0
1011
0.9068951111493106
1021
-27.96458517387001
1031
0.0
1011
-4.093104888850689
1021
-22.96458517387001
1031
0.0
1002
}
  0
LINE
  5
6489
330
1F
100
AcDbEntity
  8
zintek
  6
Continuous
 62
     7
100
AcDbLine
 10
80.06437937336011
 20
106.6540721665983
 30
0.0
 11
79.17309256127021
 21
106.6540721665983
 31
0.0
1001
AC_800
1000
ELEMENT_19
1002
{
1071
     1394
1005
6489
1003
0
1011
-4.093104888850689
1021
-27.96458517387001
1031
0.0
1011
0.9068951111493106
1021
-27.96458517387001
1031
0.0
1011
-4.093104888850689
1021
-22.96458517387001
1031
0.0
1002
}
  0
LINE
  5
648A
330
1F
100
AcDbEntity
  8
zintek
  6
Continuous
 62
     7
100
AcDbLine
 10
119.6730925612703
 20
106.5190721665984
 30
0.0
 11
119.6730925612703
 21
106.6540721665983
 31
0.0
1001
AC_800
1000
ELEMENT_19
1002
{
1071
     1406
1005
648A
1003
0
1011
-4.093104888850689
1021
-27.96458517387001
1031
0.0
1011
0.9068951111493106
1021
-27.96458517387001
1031
0.0
1011
-4.093104888850689
1021
-22.96458517387001
1031
0.0
1002
}
  0
LINE
  5
648B
330
1F
100
AcDbEntity
  8
zintek
  6
Continuous
 62
     7
100
AcDbLine
 10
119.4168793733592
 20
107.1056411996635
 30
0.0
 11
120.5006106437965
 21
107.1056411996635
 31
0.0
1001
AC_800
1000
ELEMENT_19
1002
{
1071
     1418
1005
648B
1003
0
1011
-4.093104888850689
1021
-27.96458517387001
1031
0.0
1011
0.9068951111493106
1021
-27.96458517387001
1031
0.0
1011
-4.093104888850689
1021
-22.96458517387001
1031
0.0
1002
}
  0
LINE
  5
648C
330
1F
100
AcDbEntity
  8
zintek
  6
Continuous
 62
     7
100
AcDbLine
 10
120.5643793733602
 20
106.6540721665983
 30
0.0
 11
120.5643793733602
 21
107.4238126574919
 31
0.0
1001
AC_800
1000
ELEMENT_19
1002
{
1071
     1417
1005
648C
1003
0
1011
-4.093104888850689
1021
-27.96458517387001
1031
0.0
1011
0.9068951111493106
1021
-27.96458517387001
1031
0.0
1011
-4.093104888850689
1021
-22.96458517387001
1031
0.0
1002
}
  0
LINE
  5
648D
330
1F
100
AcDbEntity
  8
zintek
  6
Continuous
 62
     7
100
AcDbLine
 10
120.6993793733601
 20
106.5190721665984
 30
0.0
 11
120.6993793733601
 21
107.1538126574919
 31
0.0
1001
AC_800
1000
ELEMENT_19
1002
{
1071
     1416
1005
648D
1003
0
1011
-4.093104888850689
1021
-27.96458517387001
1031
0.0
1011
0.9068951111493106
1021
-27.96458517387001
1031
0.0
1011
-4.093104888850689
1021
-22.96458517387001
1031
0.0
1002
}
  0
LINE
  5
648E
330
1F
100
AcDbEntity
  8
zintek
  6
Continuous
 62
     7
100
AcDbLine
 10
119.2143793733603
 20
107.558812657492
 30
0.0
 11
119.2143793733603
 21
104.1838126574917
 31
0.0
1001
AC_800
1000
ELEMENT_19
1002
{
1071
     1415
1005
648E
1003
0
1011
-4.093104888850689
1021
-27.96458517387001
1031
0.0
1011
0.9068951111493106
1021
-27.96458517387001
1031
0.0
1011
-4.093104888850689
1021
-22.96458517387001
1031
0.0
1002
}
  0
LINE
  5
648F
330
1F
100
AcDbEntity
  8
zintek
  6
Continuous
 62
     7
100
AcDbLine
 10
119.3493793733602
 20
107.4238126574921
 30
0.0
 11
119.3493793733602
 21
107.2888126574918
 31
0.0
1001
AC_800
1000
ELEMENT_19
1002
{
1071
     1414
1005
648F
1003
0
1011
-4.093104888850689
1021
-27.96458517387001
1031
0.0
1011
0.9068951111493106
1021
-27.96458517387001
1031
0.0
1011
-4.093104888850689
1021
-22.96458517387001
1031
0.0
1002
}
  0
LINE
  5
6490
330
1F
100
AcDbEntity
  8
zintek
  6
Continuous
 62
     7
100
AcDbLine
 10
120.6993793733601
 20
107.288812657492
 30
0.0
 11
120.6993793733601
 21
107.4238126574919
 31
0.0
1001
AC_800
1000
ELEMENT_19
1002
{
1071
     1413
1005
6490
1003
0
1011
-4.093104888850689
1021
-27.96458517387001
1031
0.0
1011
0.9068951111493106
1021
-27.96458517387001
1031
0.0
1011
-4.093104888850689
1021
-22.96458517387001
1031
0.0
1002
}
  0
LINE
  5
6491
330
1F
100
AcDbEntity
  8
zintek
  6
Continuous
 62
     7
100
AcDbLine
 10
119.3493793733599
 20
107.4238126574919
 30
0.0
 11
120.5643793733602
 21
107.4238126574919
 31
0.0
1001
AC_800
1000
ELEMENT_19
1002
{
1071
     1412
1005
6491
1003
0
1011
-4.093104888850689
1021
-27.96458517387001
1031
0.0
1011
0.9068951111493106
1021
-27.96458517387001
1031
0.0
1011
-4.093104888850689
1021
-22.96458517387001
1031
0.0
1002
}
  0
LINE
  5
6492
330
1F
100
AcDbEntity
  8
zintek
  6
Continuous
 62
     7
100
AcDbLine
 10
120.5643793733602
 20
107.4238126574919
 30
0.0
 11
119.3493793733599
 21
107.4238126574919
 31
0.0
1001
AC_800
1000
ELEMENT_19
1002
{
1071
     1411
1005
6492
1003
0
1011
-4.093104888850689
1021
-27.96458517387001
1031
0.0
1011
0.9068951111493106
1021
-27.96458517387001
1031
0.0
1011
-4.093104888850689
1021
-22.96458517387001
1031
0.0
1002
}
  0
LINE
  5
6493
330
1F
100
AcDbEntity
  8
zintek
  6
Continuous
 62
     7
100
AcDbLine
 10
119.6730925612703
 20
106.5190721665984
 30
0.0
 11
120.6993793733601
 21
106.5190721665984
 31
0.0
1001
AC_800
1000
ELEMENT_19
1002
{
1071
     1410
1005
6493
1003
0
1011
-4.093104888850689
1021
-27.96458517387001
1031
0.0
1011
0.9068951111493106
1021
-27.96458517387001
1031
0.0
1011
-4.093104888850689
1021
-22.96458517387001
1031
0.0
1002
}
  0
LINE
  5
6494
330
1F
100
AcDbEntity
  8
zintek
  6
Continuous
 62
     7
100
AcDbLine
 10
119.3493793733599
 20
103.7988126574915
 30
0.0
 11
119.3493793733602
 21
107.4238126574919
 31
0.0
1001
AC_800
1000
ELEMENT_19
1002
{
1071
     1409
1005
6494
1003
0
1011
-4.093104888850689
1021
-27.96458517387001
1031
0.0
1011
0.9068951111493106
1021
-27.96458517387001
1031
0.0
1011
-4.093104888850689
1021
-22.96458517387001
1031
0.0
1002
}
  0
LINE
  5
6495
330
1F
100
AcDbEntity
  8
zintek
  6
Continuous
 62
     7
100
AcDbLine
 10
120.6993793733601
 20
107.558812657492
 30
0.0
 11
119.2143793733603
 21
107.558812657492
 31
0.0
1001
AC_800
1000
ELEMENT_19
1002
{
1071
     1408
1005
6495
1003
0
1011
-4.093104888850689
1021
-27.96458517387001
1031
0.0
1011
0.9068951111493106
1021
-27.96458517387001
1031
0.0
1011
-4.093104888850689
1021
-22.96458517387001
1031
0.0
1002
}
  0
LINE
  5
6496
330
1F
100
AcDbEntity
  8
zintek
  6
Continuous
 62
     7
100
AcDbLine
 10
120.6993793733601
 20
107.5588126574921
 30
0.0
 11
120.6993793733601
 21
106.5190721665984
 31
0.0
1001
AC_800
1000
ELEMENT_19
1002
{
1071
     1407
1005
6496
1003
0
1011
-4.093104888850689
1021
-27.96458517387001
1031
0.0
1011
0.9068951111493106
1021
-27.96458517387001
1031
0.0
1011
-4.093104888850689
1021
-22.96458517387001
1031
0.0
1002
}
  0
LINE
  5
6497
330
1F
100
AcDbEntity
  8
zintek
  6
Continuous
 62
     7
100
AcDbLine
 10
78.91687937335911
 20
107.1056411996635
 30
0.0
 11
80.00061064379645
 21
107.1056411996635
 31
0.0
1001
AC_800
1000
ELEMENT_19
1002
{
1071
     1321
1005
6497
1003
0
1011
-4.093104888850689
1021
-27.96458517387001
1031
0.0
1011
0.9068951111493106
1021
-27.96458517387001
1031
0.0
1011
-4.093104888850689
1021
-22.96458517387001
1031
0.0
1002
}
  0
LINE
  5
6498
330
1F
100
AcDbEntity
  8
zintek
  6
Continuous
 62
     7
100
AcDbLine
 10
80.06437937336011
 20
106.6540721665983
 30
0.0
 11
80.06437937336011
 21
107.4238126574919
 31
0.0
1001
AC_800
1000
ELEMENT_19
1002
{
1071
     1318
1005
6498
1003
0
1011
-4.093104888850689
1021
-27.96458517387001
1031
0.0
1011
0.9068951111493106
1021
-27.96458517387001
1031
0.0
1011
-4.093104888850689
1021
-22.96458517387001
1031
0.0
1002
}
  0
LINE
  5
6499
330
1F
100
AcDbEntity
  8
zintek
  6
Continuous
 62
     7
100
AcDbLine
 10
93.83884339822634
 20
202.9628184924743
 30
0.0
 11
93.96092011485114
 21
202.8661883795277
 31
0.0
1001
AC_800
1000
ELEMENT_19
1002
{
1071
     1367
1005
6499
1003
0
1011
-3.793536292658814
1021
-16.24093981692957
1031
0.0
1011
1.206463707341185
1021
-16.24093981692957
1031
0.0
1011
-3.793536292658814
1021
-11.24093981692957
1031
0.0
1002
}
  0
LINE
  5
649A
330
1F
100
AcDbEntity
  8
zintek
  6
Continuous
 62
     7
100
AcDbLine
 10
93.8374341908551
 20
202.8801973645692
 30
0.0
 11
93.95945105542471
 21
202.7836146276581
 31
0.0
1001
AC_800
1000
ELEMENT_19
1002
{
1071
     1368
1005
649A
1003
0
1011
-3.793536292658814
1021
-16.24093981692957
1031
0.0
1011
1.206463707341185
1021
-16.24093981692957
1031
0.0
1011
-3.793536292658814
1021
-11.24093981692957
1031
0.0
1002
}
  0
LINE
  5
649B
330
1F
100
AcDbEntity
  8
zintek
  6
Continuous
 62
     7
100
AcDbLine
 10
94.24774920470019
 20
203.103881345424
 30
0.0
 11
94.24756821672975
 21
203.1858855270592
 31
0.0
1001
AC_800
1000
ELEMENT_19
1002
{
1071
     1358
1005
649B
1003
0
1011
-3.793536292658814
1021
-16.24093981692957
1031
0.0
1011
1.206463707341185
1021
-16.24093981692957
1031
0.0
1011
-3.793536292658814
1021
-11.24093981692957
1031
0.0
1002
}
  0
LINE
  5
649C
330
1F
100
AcDbEntity
  8
zintek
  6
Continuous
 62
     7
100
AcDbLine
 10
94.37629791715654
 20
202.9834904240849
 30
0.0
 11
94.38434569043455
 21
203.435844373724
 31
0.0
1001
AC_800
1000
ELEMENT_19
1002
{
1071
      966
1005
649C
1003
0
1011
-3.793536292658814
1021
-16.24093981692957
1031
0.0
1011
1.206463707341185
1021
-16.24093981692957
1031
0.0
1011
-3.793536292658814
1021
-11.24093981692957
1031
0.0
1002
}
  0
LINE
  5
649D
330
1F
100
AcDbEntity
  8
zintek
  6
Continuous
 62
     7
100
AcDbLine
 10
93.76343569112071
 20
203.0489610770441
 30
0.0
 11
94.24756821672975
 21
203.1858855270592
 31
0.0
1001
AC_800
1000
ELEMENT_19
1002
{
1071
      965
1005
649D
1003
0
1011
-3.793536292658814
1021
-16.24093981692957
1031
0.0
1011
1.206463707341185
1021
-16.24093981692957
1031
0.0
1011
-3.793536292658814
1021
-11.24093981692957
1031
0.0
1002
}
  0
LINE
  5
649E
330
1F
100
AcDbEntity
  8
zintek
  6
Continuous
 62
     7
100
AcDbLine
 10
94.45179896115098
 20
202.9227577604646
 30
0.0
 11
94.46284628364969
 21
203.5400773546845
 31
0.0
1001
AC_800
1000
ELEMENT_19
1002
{
1071
      968
1005
649E
1003
0
1011
-3.793536292658814
1021
-16.24093981692957
1031
0.0
1011
1.206463707341185
1021
-16.24093981692957
1031
0.0
1011
-3.793536292658814
1021
-11.24093981692957
1031
0.0
1002
}
  0
LINE
  5
649F
330
1F
100
AcDbEntity
  8
zintek
  6
Continuous
 62
     7
100
AcDbLine
 10
94.23040501492698
 20
203.0989722949144
 30
0.0
 11
94.37629791715654
 21
202.9834904240849
 31
0.0
1001
AC_800
1000
ELEMENT_19
1002
{
1071
     1357
1005
649F
1003
0
1011
-3.793536292658814
1021
-16.24093981692957
1031
0.0
1011
1.206463707341185
1021
-16.24093981692957
1031
0.0
1011
-3.793536292658814
1021
-11.24093981692957
1031
0.0
1002
}
  0
LINE
  5
64A0
330
1F
100
AcDbEntity
  8
zintek
  6
Continuous
 62
     7
100
AcDbLine
 10
93.73213858290773
 20
201.2026460836031
 30
0.0
 11
93.76343569112071
 21
203.0489610770441
 31
0.0
1001
AC_800
1000
ELEMENT_19
1002
{
1071
      964
1005
64A0
1003
0
1011
-3.793536292658814
1021
-16.24093981692957
1031
0.0
1011
1.206463707341185
1021
-16.24093981692957
1031
0.0
1011
-3.793536292658814
1021
-11.24093981692957
1031
0.0
1002
}
  0
LINE
  5
64A1
330
1F
100
AcDbEntity
  8
zintek
  6
Continuous
 62
     7
100
AcDbLine
 10
80.19937937336022
 20
106.5190721665984
 30
0.0
 11
80.19937937336022
 21
107.1538126574919
 31
0.0
1001
AC_800
1000
ELEMENT_19
1002
{
1071
     1314
1005
64A1
1003
0
1011
-4.093104888850689
1021
-27.96458517387001
1031
0.0
1011
0.9068951111493106
1021
-27.96458517387001
1031
0.0
1011
-4.093104888850689
1021
-22.96458517387001
1031
0.0
1002
}
  0
LINE
  5
64A2
330
1F
100
AcDbEntity
  8
zintek
  6
Continuous
 62
     7
100
AcDbLine
 10
93.95945105542471
 20
202.7836146276581
 30
0.0
 11
93.96092011485114
 21
202.8661883795277
 31
0.0
1001
AC_800
1000
ELEMENT_19
1002
{
1071
     1366
1005
64A2
1003
0
1011
-3.793536292658814
1021
-16.24093981692957
1031
0.0
1011
1.206463707341185
1021
-16.24093981692957
1031
0.0
1011
-3.793536292658814
1021
-11.24093981692957
1031
0.0
1002
}
  0
LINE
  5
64A3
330
1F
100
AcDbEntity
  8
zintek
  6
Continuous
 62
     7
100
AcDbLine
 10
93.76343569112071
 20
203.0489610770441
 30
0.0
 11
93.68753536640701
 21
203.1090373269406
 31
0.0
1001
AC_800
1000
ELEMENT_19
1002
{
1071
     1360
1005
64A3
1003
0
1011
-3.793536292658814
1021
-16.24093981692957
1031
0.0
1011
1.206463707341185
1021
-16.24093981692957
1031
0.0
1011
-3.793536292658814
1021
-11.24093981692957
1031
0.0
1002
}
  0
LINE
  5
64A4
330
1F
100
AcDbEntity
  8
zintek
  6
Continuous
 62
     7
100
AcDbLine
 10
93.81060041909666
 20
201.306946660713
 30
0.0
 11
93.83927748292126
 21
202.9882686624326
 31
0.0
1001
AC_800
1000
ELEMENT_19
1002
{
1071
     1354
1005
64A4
1003
0
1011
-3.793536292658814
1021
-16.24093981692957
1031
0.0
1011
1.206463707341185
1021
-16.24093981692957
1031
0.0
1011
-3.793536292658814
1021
-11.24093981692957
1031
0.0
1002
}
  0
LINE
  5
64A5
330
1F
100
AcDbEntity
  8
zintek
  6
Continuous
 62
     7
100
AcDbLine
 10
133.7392289738832
 20
104.0488126574916
 30
0.0
 11
133.7392289738832
 21
104.1838126574917
 31
0.0
1001
AC_800
1000
ELEMENT_19
1002
{
1071
      992
1005
64A5
1003
0
1011
-4.093104888850689
1021
-27.96458517387001
1031
0.0
1011
0.9068951111493106
1021
-27.96458517387001
1031
0.0
1011
-4.093104888850689
1021
-22.96458517387001
1031
0.0
1002
}
  0
LINE
  5
64A6
330
1F
100
AcDbEntity
  8
zintek
  6
Continuous
 62
     7
100
AcDbLine
 10
133.7392289738832
 20
104.1838126574917
 30
0.0
 11
119.5518793733591
 21
104.1838126574917
 31
0.0
1001
AC_800
1000
ELEMENT_19
1002
{
1071
      991
1005
64A6
1003
0
1011
-4.093104888850689
1021
-27.96458517387001
1031
0.0
1011
0.9068951111493106
1021
-27.96458517387001
1031
0.0
1011
-4.093104888850689
1021
-22.96458517387001
1031
0.0
1002
}
  0
LINE
  5
64A7
330
1F
100
AcDbEntity
  8
zintek
  6
Continuous
 62
   120
100
AcDbLine
 10
51.17453465372841
 20
79.49880560725168
 30
0.0
 11
51.17453465372841
 21
92.99880560725162
 31
0.0
1001
AC_800
1000
ELEMENT_19
1002
{
1071
     1146
1005
64A7
1003
0
1011
-4.093104888850689
1021
-27.96458517387001
1031
0.0
1011
0.9068951111493106
1021
-27.96458517387001
1031
0.0
1011
-4.093104888850689
1021
-22.96458517387001
1031
0.0
1002
}
  0
LINE
  5
64A8
330
1F
100
AcDbEntity
  8
zintek
  6
Continuous
 62
     7
100
AcDbLine
 10
51.17453465372841
 20
103.7988126574915
 30
0.0
 11
119.2143793733603
 21
103.7988126574915
 31
0.0
1001
AC_800
1000
ELEMENT_19
1002
{
1071
     1159
1005
64A8
1003
0
1011
-4.093104888850689
1021
-27.96458517387001
1031
0.0
1011
0.9068951111493106
1021
-27.96458517387001
1031
0.0
1011
-4.093104888850689
1021
-22.96458517387001
1031
0.0
1002
}
  0
LINE
  5
64A9
330
1F
100
AcDbEntity
  8
zintek
  6
Continuous
 62
     7
100
AcDbLine
 10
133.7392289738832
 20
103.7988126574915
 30
0.0
 11
119.5518793733591
 21
103.7988126574915
 31
0.0
1001
AC_800
1000
ELEMENT_19
1002
{
1071
     1150
1005
64A9
1003
0
1011
-4.093104888850689
1021
-27.96458517387001
1031
0.0
1011
0.9068951111493106
1021
-27.96458517387001
1031
0.0
1011
-4.093104888850689
1021
-22.96458517387001
1031
0.0
1002
}
  0
LINE
  5
64AA
330
1F
100
AcDbEntity
  8
zintek
  6
Continuous
 62
     7
100
AcDbLine
 10
133.7392289738832
 20
79.49880560725168
 30
0.0
 11
51.17453465372841
 21
79.49880560725168
 31
0.0
1001
AC_800
1000
ELEMENT_19
1002
{
1071
     1149
1005
64AA
1003
0
1011
-4.093104888850689
1021
-27.96458517387001
1031
0.0
1011
0.9068951111493106
1021
-27.96458517387001
1031
0.0
1011
-4.093104888850689
1021
-22.96458517387001
1031
0.0
1002
}
  0
LINE
  5
64AB
330
1F
100
AcDbEntity
  8
zintek
  6
Continuous
 62
     7
100
AcDbLine
 10
133.7392289738832
 20
92.99880560725162
 30
0.0
 11
133.7392289738832
 21
79.49880560725168
 31
0.0
1001
AC_800
1000
ELEMENT_19
1002
{
1071
     1148
1005
64AB
1003
0
1011
-4.093104888850689
1021
-27.96458517387001
1031
0.0
1011
0.9068951111493106
1021
-27.96458517387001
1031
0.0
1011
-4.093104888850689
1021
-22.96458517387001
1031
0.0
1002
}
  0
LINE
  5
64AC
330
1F
100
AcDbEntity
  8
zintek
  6
Continuous
 62
     7
100
AcDbLine
 10
133.7392289738832
 20
92.99880560725162
 30
0.0
 11
51.17453465372841
 21
92.99880560725162
 31
0.0
1001
AC_800
1000
ELEMENT_19
1002
{
1071
     1147
1005
64AC
1003
0
1011
-4.093104888850689
1021
-27.96458517387001
1031
0.0
1011
0.9068951111493106
1021
-27.96458517387001
1031
0.0
1011
-4.093104888850689
1021
-22.96458517387001
1031
0.0
1002
}
  0
LINE
  5
64AD
330
1F
100
AcDbEntity
  8
zintek
  6
Continuous
 62
   120
100
AcDbLine
 10
133.7392289738832
 20
79.49880560725168
 30
0.0
 11
133.7392289738832
 21
92.99880560725162
 31
0.0
1001
AC_800
1000
ELEMENT_19
1002
{
1071
     1145
1005
64AD
1003
0
1011
-4.093104888850689
1021
-27.96458517387001
1031
0.0
1011
0.9068951111493106
1021
-27.96458517387001
1031
0.0
1011
-4.093104888850689
1021
-22.96458517387001
1031
0.0
1002
}
  0
LINE
  5
64AE
330
1F
100
AcDbEntity
  8
zintek
  6
Continuous
 62
     7
100
AcDbLine
 10
133.7392289738832
 20
100.4238056072517
 30
0.0
 11
51.17453465372841
 21
100.4238056072517
 31
0.0
1001
AC_800
1000
ELEMENT_19
1002
{
1071
     1144
1005
64AE
1003
0
1011
-4.093104888850689
1021
-27.96458517387001
1031
0.0
1011
0.9068951111493106
1021
-27.96458517387001
1031
0.0
1011
-4.093104888850689
1021
-22.96458517387001
1031
0.0
1002
}
  0
LINE
  5
64AF
330
1F
100
AcDbEntity
  8
zintek
  6
Continuous
 62
     7
100
AcDbLine
 10
133.7392289738832
 20
103.7988056072516
 30
0.0
 11
133.7392289738832
 21
100.4238056072517
 31
0.0
1001
AC_800
1000
ELEMENT_19
1002
{
1071
     1143
1005
64AF
1003
0
1011
-4.093104888850689
1021
-27.96458517387001
1031
0.0
1011
0.9068951111493106
1021
-27.96458517387001
1031
0.0
1011
-4.093104888850689
1021
-22.96458517387001
1031
0.0
1002
}
  0
LINE
  5
64B0
330
1F
100
AcDbEntity
  8
zintek
  6
Continuous
 62
     7
100
AcDbLine
 10
133.7392289738832
 20
103.7988056072516
 30
0.0
 11
51.17453465372841
 21
103.7988056072516
 31
0.0
1001
AC_800
1000
ELEMENT_19
1002
{
1071
     1142
1005
64B0
1003
0
1011
-4.093104888850689
1021
-27.96458517387001
1031
0.0
1011
0.9068951111493106
1021
-27.96458517387001
1031
0.0
1011
-4.093104888850689
1021
-22.96458517387001
1031
0.0
1002
}
  0
LINE
  5
64B1
330
1F
100
AcDbEntity
  8
zintek
  6
Continuous
 62
     7
100
AcDbLine
 10
51.17453465372841
 20
100.4238056072517
 30
0.0
 11
51.17453465372841
 21
103.7988056072516
 31
0.0
1001
AC_800
1000
ELEMENT_19
1002
{
1071
     1141
1005
64B1
1003
0
1011
-4.093104888850689
1021
-27.96458517387001
1031
0.0
1011
0.9068951111493106
1021
-27.96458517387001
1031
0.0
1011
-4.093104888850689
1021
-22.96458517387001
1031
0.0
1002
}
  0
LINE
  5
64B2
330
1F
100
AcDbEntity
  8
zintek
  6
Continuous
 62
     7
100
AcDbLine
 10
130.1495346537285
 20
100.4238056072517
 30
0.0
 11
133.7392289738832
 21
100.4238056072517
 31
0.0
1001
AC_800
1000
ELEMENT_19
1002
{
1071
     1140
1005
64B2
1003
0
1011
-4.093104888850689
1021
-27.96458517387001
1031
0.0
1011
0.9068951111493106
1021
-27.96458517387001
1031
0.0
1011
-4.093104888850689
1021
-22.96458517387001
1031
0.0
1002
}
  0
LINE
  5
64B3
330
1F
100
AcDbEntity
  8
zintek
  6
Continuous
 62
     7
100
AcDbLine
 10
62.64953465372832
 20
100.4238056072517
 30
0.0
 11
123.3995346537284
 21
100.4238056072517
 31
0.0
1001
AC_800
1000
ELEMENT_19
1002
{
1071
     1139
1005
64B3
1003
0
1011
-4.093104888850689
1021
-27.96458517387001
1031
0.0
1011
0.9068951111493106
1021
-27.96458517387001
1031
0.0
1011
-4.093104888850689
1021
-22.96458517387001
1031
0.0
1002
}
  0
LINE
  5
64B4
330
1F
100
AcDbEntity
  8
zintek
  6
Continuous
 62
     7
100
AcDbLine
 10
51.17453465372841
 20
100.4238056072517
 30
0.0
 11
55.89953465372838
 21
100.4238056072517
 31
0.0
1001
AC_800
1000
ELEMENT_19
1002
{
1071
     1138
1005
64B4
1003
0
1011
-4.093104888850689
1021
-27.96458517387001
1031
0.0
1011
0.9068951111493106
1021
-27.96458517387001
1031
0.0
1011
-4.093104888850689
1021
-22.96458517387001
1031
0.0
1002
}
  0
LINE
  5
64B5
330
1F
100
AcDbEntity
  8
zintek
  6
Continuous
 62
     7
100
AcDbLine
 10
133.7392289738832
 20
100.4238056072517
 30
0.0
 11
133.7392289738832
 21
103.7988056072516
 31
0.0
1001
AC_800
1000
ELEMENT_19
1002
{
1071
     1137
1005
64B5
1003
0
1011
-4.093104888850689
1021
-27.96458517387001
1031
0.0
1011
0.9068951111493106
1021
-27.96458517387001
1031
0.0
1011
-4.093104888850689
1021
-22.96458517387001
1031
0.0
1002
}
  0
LINE
  5
64B6
330
1F
100
AcDbEntity
  8
zintek
  6
Continuous
 62
     7
100
AcDbLine
 10
51.17453465372841
 20
103.7988056072516
 30
0.0
 11
133.7392289738832
 21
103.7988056072516
 31
0.0
1001
AC_800
1000
ELEMENT_19
1002
{
1071
     1136
1005
64B6
1003
0
1011
-4.093104888850689
1021
-27.96458517387001
1031
0.0
1011
0.9068951111493106
1021
-27.96458517387001
1031
0.0
1011
-4.093104888850689
1021
-22.96458517387001
1031
0.0
1002
}
  0
LINE
  5
64B7
330
1F
100
AcDbEntity
  8
zintek
  6
Continuous
 62
     7
100
AcDbLine
 10
55.89953465372838
 20
100.4238056072517
 30
0.0
 11
51.17453465372841
 21
100.4238056072517
 31
0.0
1001
AC_800
1000
ELEMENT_19
1002
{
1071
     1135
1005
64B7
1003
0
1011
-4.093104888850689
1021
-27.96458517387001
1031
0.0
1011
0.9068951111493106
1021
-27.96458517387001
1031
0.0
1011
-4.093104888850689
1021
-22.96458517387001
1031
0.0
1002
}
  0
LINE
  5
64B8
330
1F
100
AcDbEntity
  8
zintek
  6
Continuous
 62
     7
100
AcDbLine
 10
123.3995346537284
 20
100.4238056072517
 30
0.0
 11
62.64953465372832
 21
100.4238056072517
 31
0.0
1001
AC_800
1000
ELEMENT_19
1002
{
1071
     1134
1005
64B8
1003
0
1011
-4.093104888850689
1021
-27.96458517387001
1031
0.0
1011
0.9068951111493106
1021
-27.96458517387001
1031
0.0
1011
-4.093104888850689
1021
-22.96458517387001
1031
0.0
1002
}
  0
LINE
  5
64B9
330
1F
100
AcDbEntity
  8
zintek
  6
Continuous
 62
     7
100
AcDbLine
 10
133.7392289738832
 20
100.4238056072517
 30
0.0
 11
130.1495346537285
 21
100.4238056072517
 31
0.0
1001
AC_800
1000
ELEMENT_19
1002
{
1071
     1133
1005
64B9
1003
0
1011
-4.093104888850689
1021
-27.96458517387001
1031
0.0
1011
0.9068951111493106
1021
-27.96458517387001
1031
0.0
1011
-4.093104888850689
1021
-22.96458517387001
1031
0.0
1002
}
  0
LINE
  5
64BA
330
1F
100
AcDbEntity
  8
zintek
  6
Continuous
 62
     7
100
AcDbLine
 10
133.7392289738832
 20
103.7988056072516
 30
0.0
 11
133.7392289738832
 21
100.4238056072517
 31
0.0
1001
AC_800
1000
ELEMENT_19
1002
{
1071
     1132
1005
64BA
1003
0
1011
-4.093104888850689
1021
-27.96458517387001
1031
0.0
1011
0.9068951111493106
1021
-27.96458517387001
1031
0.0
1011
-4.093104888850689
1021
-22.96458517387001
1031
0.0
1002
}
  0
LINE
  5
64BB
330
1F
100
AcDbEntity
  8
zintek
  6
Continuous
 62
     7
100
AcDbLine
 10
133.7392289738832
 20
103.7988056072516
 30
0.0
 11
51.17453465372841
 21
103.7988056072516
 31
0.0
1001
AC_800
1000
ELEMENT_19
1002
{
1071
     1131
1005
64BB
1003
0
1011
-4.093104888850689
1021
-27.96458517387001
1031
0.0
1011
0.9068951111493106
1021
-27.96458517387001
1031
0.0
1011
-4.093104888850689
1021
-22.96458517387001
1031
0.0
1002
}
  0
LINE
  5
64BC
330
1F
100
AcDbEntity
  8
zintek
  6
Continuous
 62
     7
100
AcDbLine
 10
51.17453465372841
 20
100.4238056072517
 30
0.0
 11
51.17453465372841
 21
103.7988056072516
 31
0.0
1001
AC_800
1000
ELEMENT_19
1002
{
1071
     1130
1005
64BC
1003
0
1011
-4.093104888850689
1021
-27.96458517387001
1031
0.0
1011
0.9068951111493106
1021
-27.96458517387001
1031
0.0
1011
-4.093104888850689
1021
-22.96458517387001
1031
0.0
1002
}
  0
LINE
  5
64BD
330
1F
100
AcDbEntity
  8
zintek
  6
Continuous
 62
     7
100
AcDbLine
 10
130.1495346537285
 20
100.4238056072517
 30
0.0
 11
133.7392289738832
 21
100.4238056072517
 31
0.0
1001
AC_800
1000
ELEMENT_19
1002
{
1071
     1129
1005
64BD
1003
0
1011
-4.093104888850689
1021
-27.96458517387001
1031
0.0
1011
0.9068951111493106
1021
-27.96458517387001
1031
0.0
1011
-4.093104888850689
1021
-22.96458517387001
1031
0.0
1002
}
  0
LINE
  5
64BE
330
1F
100
AcDbEntity
  8
zintek
  6
Continuous
 62
     7
100
AcDbLine
 10
62.64953465372832
 20
100.4238056072517
 30
0.0
 11
123.3995346537284
 21
100.4238056072517
 31
0.0
1001
AC_800
1000
ELEMENT_19
1002
{
1071
     1128
1005
64BE
1003
0
1011
-4.093104888850689
1021
-27.96458517387001
1031
0.0
1011
0.9068951111493106
1021
-27.96458517387001
1031
0.0
1011
-4.093104888850689
1021
-22.96458517387001
1031
0.0
1002
}
  0
LINE
  5
64BF
330
1F
100
AcDbEntity
  8
zintek
  6
Continuous
 62
     7
100
AcDbLine
 10
51.17453465372841
 20
100.4238056072517
 30
0.0
 11
55.89953465372838
 21
100.4238056072517
 31
0.0
1001
AC_800
1000
ELEMENT_19
1002
{
1071
     1127
1005
64BF
1003
0
1011
-4.093104888850689
1021
-27.96458517387001
1031
0.0
1011
0.9068951111493106
1021
-27.96458517387001
1031
0.0
1011
-4.093104888850689
1021
-22.96458517387001
1031
0.0
1002
}
  0
LINE
  5
64C0
330
1F
100
AcDbEntity
  8
zintek
  6
Continuous
 62
     7
100
AcDbLine
 10
133.7392289738832
 20
100.4238056072517
 30
0.0
 11
133.7392289738832
 21
103.7988056072516
 31
0.0
1001
AC_800
1000
ELEMENT_19
1002
{
1071
     1126
1005
64C0
1003
0
1011
-4.093104888850689
1021
-27.96458517387001
1031
0.0
1011
0.9068951111493106
1021
-27.96458517387001
1031
0.0
1011
-4.093104888850689
1021
-22.96458517387001
1031
0.0
1002
}
  0
LINE
  5
64C1
330
1F
100
AcDbEntity
  8
zintek
  6
Continuous
 62
     7
100
AcDbLine
 10
51.17453465372841
 20
103.7988056072516
 30
0.0
 11
133.7392289738832
 21
103.7988056072516
 31
0.0
1001
AC_800
1000
ELEMENT_19
1002
{
1071
     1125
1005
64C1
1003
0
1011
-4.093104888850689
1021
-27.96458517387001
1031
0.0
1011
0.9068951111493106
1021
-27.96458517387001
1031
0.0
1011
-4.093104888850689
1021
-22.96458517387001
1031
0.0
1002
}
  0
LINE
  5
64C2
330
1F
100
AcDbEntity
  8
zintek
  6
Continuous
 62
     7
100
AcDbLine
 10
55.89953465372838
 20
100.4238056072517
 30
0.0
 11
51.17453465372841
 21
100.4238056072517
 31
0.0
1001
AC_800
1000
ELEMENT_19
1002
{
1071
     1124
1005
64C2
1003
0
1011
-4.093104888850689
1021
-27.96458517387001
1031
0.0
1011
0.9068951111493106
1021
-27.96458517387001
1031
0.0
1011
-4.093104888850689
1021
-22.96458517387001
1031
0.0
1002
}
  0
LINE
  5
64C3
330
1F
100
AcDbEntity
  8
zintek
  6
Continuous
 62
     7
100
AcDbLine
 10
123.3995346537284
 20
100.4238056072517
 30
0.0
 11
62.64953465372832
 21
100.4238056072517
 31
0.0
1001
AC_800
1000
ELEMENT_19
1002
{
1071
     1123
1005
64C3
1003
0
1011
-4.093104888850689
1021
-27.96458517387001
1031
0.0
1011
0.9068951111493106
1021
-27.96458517387001
1031
0.0
1011
-4.093104888850689
1021
-22.96458517387001
1031
0.0
1002
}
  0
LINE
  5
64C4
330
1F
100
AcDbEntity
  8
zintek
  6
Continuous
 62
     7
100
AcDbLine
 10
133.7392289738832
 20
100.4238056072517
 30
0.0
 11
130.1495346537285
 21
100.4238056072517
 31
0.0
1001
AC_800
1000
ELEMENT_19
1002
{
1071
     1122
1005
64C4
1003
0
1011
-4.093104888850689
1021
-27.96458517387001
1031
0.0
1011
0.9068951111493106
1021
-27.96458517387001
1031
0.0
1011
-4.093104888850689
1021
-22.96458517387001
1031
0.0
1002
}
  0
LINE
  5
64C5
330
1F
100
AcDbEntity
  8
zintek
  6
Continuous
 62
     7
100
AcDbLine
 10
133.7392289738832
 20
103.7988056072516
 30
0.0
 11
133.7392289738832
 21
100.4238056072517
 31
0.0
1001
AC_800
1000
ELEMENT_19
1002
{
1071
     1121
1005
64C5
1003
0
1011
-4.093104888850689
1021
-27.96458517387001
1031
0.0
1011
0.9068951111493106
1021
-27.96458517387001
1031
0.0
1011
-4.093104888850689
1021
-22.96458517387001
1031
0.0
1002
}
  0
LINE
  5
64C6
330
1F
100
AcDbEntity
  8
zintek
  6
Continuous
 62
     7
100
AcDbLine
 10
133.7392289738832
 20
103.7988056072516
 30
0.0
 11
51.17453465372841
 21
103.7988056072516
 31
0.0
1001
AC_800
1000
ELEMENT_19
1002
{
1071
     1120
1005
64C6
1003
0
1011
-4.093104888850689
1021
-27.96458517387001
1031
0.0
1011
0.9068951111493106
1021
-27.96458517387001
1031
0.0
1011
-4.093104888850689
1021
-22.96458517387001
1031
0.0
1002
}
  0
LINE
  5
64C7
330
1F
100
AcDbEntity
  8
zintek
  6
Continuous
 62
     7
100
AcDbLine
 10
51.17453465372841
 20
100.4238056072517
 30
0.0
 11
51.17453465372841
 21
103.7988056072516
 31
0.0
1001
AC_800
1000
ELEMENT_19
1002
{
1071
     1119
1005
64C7
1003
0
1011
-4.093104888850689
1021
-27.96458517387001
1031
0.0
1011
0.9068951111493106
1021
-27.96458517387001
1031
0.0
1011
-4.093104888850689
1021
-22.96458517387001
1031
0.0
1002
}
  0
LINE
  5
64C8
330
1F
100
AcDbEntity
  8
zintek
  6
Continuous
 62
     7
100
AcDbLine
 10
130.1495346537285
 20
100.4238056072517
 30
0.0
 11
133.7392289738832
 21
100.4238056072517
 31
0.0
1001
AC_800
1000
ELEMENT_19
1002
{
1071
     1118
1005
64C8
1003
0
1011
-4.093104888850689
1021
-27.96458517387001
1031
0.0
1011
0.9068951111493106
1021
-27.96458517387001
1031
0.0
1011
-4.093104888850689
1021
-22.96458517387001
1031
0.0
1002
}
  0
LINE
  5
64C9
330
1F
100
AcDbEntity
  8
zintek
  6
Continuous
 62
     7
100
AcDbLine
 10
62.64953465372832
 20
100.4238056072517
 30
0.0
 11
123.3995346537284
 21
100.4238056072517
 31
0.0
1001
AC_800
1000
ELEMENT_19
1002
{
1071
     1117
1005
64C9
1003
0
1011
-4.093104888850689
1021
-27.96458517387001
1031
0.0
1011
0.9068951111493106
1021
-27.96458517387001
1031
0.0
1011
-4.093104888850689
1021
-22.96458517387001
1031
0.0
1002
}
  0
LINE
  5
64CA
330
1F
100
AcDbEntity
  8
zintek
  6
Continuous
 62
     7
100
AcDbLine
 10
51.17453465372841
 20
100.4238056072517
 30
0.0
 11
55.89953465372838
 21
100.4238056072517
 31
0.0
1001
AC_800
1000
ELEMENT_19
1002
{
1071
     1116
1005
64CA
1003
0
1011
-4.093104888850689
1021
-27.96458517387001
1031
0.0
1011
0.9068951111493106
1021
-27.96458517387001
1031
0.0
1011
-4.093104888850689
1021
-22.96458517387001
1031
0.0
1002
}
  0
LINE
  5
64CB
330
1F
100
AcDbEntity
  8
zintek
  6
Continuous
 62
     7
100
AcDbLine
 10
133.7392289738832
 20
100.4238056072517
 30
0.0
 11
133.7392289738832
 21
103.7988056072516
 31
0.0
1001
AC_800
1000
ELEMENT_19
1002
{
1071
     1115
1005
64CB
1003
0
1011
-4.093104888850689
1021
-27.96458517387001
1031
0.0
1011
0.9068951111493106
1021
-27.96458517387001
1031
0.0
1011
-4.093104888850689
1021
-22.96458517387001
1031
0.0
1002
}
  0
LINE
  5
64CC
330
1F
100
AcDbEntity
  8
zintek
  6
Continuous
 62
     7
100
AcDbLine
 10
51.17453465372841
 20
103.7988056072516
 30
0.0
 11
133.7392289738832
 21
103.7988056072516
 31
0.0
1001
AC_800
1000
ELEMENT_19
1002
{
1071
     1114
1005
64CC
1003
0
1011
-4.093104888850689
1021
-27.96458517387001
1031
0.0
1011
0.9068951111493106
1021
-27.96458517387001
1031
0.0
1011
-4.093104888850689
1021
-22.96458517387001
1031
0.0
1002
}
  0
LINE
  5
64CD
330
1F
100
AcDbEntity
  8
zintek
  6
Continuous
 62
     7
100
AcDbLine
 10
55.89953465372838
 20
100.4238056072517
 30
0.0
 11
51.17453465372841
 21
100.4238056072517
 31
0.0
1001
AC_800
1000
ELEMENT_19
1002
{
1071
     1113
1005
64CD
1003
0
1011
-4.093104888850689
1021
-27.96458517387001
1031
0.0
1011
0.9068951111493106
1021
-27.96458517387001
1031
0.0
1011
-4.093104888850689
1021
-22.96458517387001
1031
0.0
1002
}
  0
LINE
  5
64CE
330
1F
100
AcDbEntity
  8
zintek
  6
Continuous
 62
     7
100
AcDbLine
 10
123.3995346537284
 20
100.4238056072517
 30
0.0
 11
62.64953465372832
 21
100.4238056072517
 31
0.0
1001
AC_800
1000
ELEMENT_19
1002
{
1071
     1112
1005
64CE
1003
0
1011
-4.093104888850689
1021
-27.96458517387001
1031
0.0
1011
0.9068951111493106
1021
-27.96458517387001
1031
0.0
1011
-4.093104888850689
1021
-22.96458517387001
1031
0.0
1002
}
  0
LINE
  5
64CF
330
1F
100
AcDbEntity
  8
zintek
  6
Continuous
 62
     7
100
AcDbLine
 10
133.7392289738832
 20
100.4238056072517
 30
0.0
 11
130.1495346537285
 21
100.4238056072517
 31
0.0
1001
AC_800
1000
ELEMENT_19
1002
{
1071
     1111
1005
64CF
1003
0
1011
-4.093104888850689
1021
-27.96458517387001
1031
0.0
1011
0.9068951111493106
1021
-27.96458517387001
1031
0.0
1011
-4.093104888850689
1021
-22.96458517387001
1031
0.0
1002
}
  0
LINE
  5
64D0
330
1F
100
AcDbEntity
  8
zintek
  6
Continuous
 62
     7
100
AcDbLine
 10
133.7392289738832
 20
103.7988056072516
 30
0.0
 11
133.7392289738832
 21
100.4238056072517
 31
0.0
1001
AC_800
1000
ELEMENT_19
1002
{
1071
     1110
1005
64D0
1003
0
1011
-4.093104888850689
1021
-27.96458517387001
1031
0.0
1011
0.9068951111493106
1021
-27.96458517387001
1031
0.0
1011
-4.093104888850689
1021
-22.96458517387001
1031
0.0
1002
}
  0
LINE
  5
64D1
330
1F
100
AcDbEntity
  8
zintek
  6
Continuous
 62
     7
100
AcDbLine
 10
133.7392289738832
 20
103.7988056072516
 30
0.0
 11
51.17453465372841
 21
103.7988056072516
 31
0.0
1001
AC_800
1000
ELEMENT_19
1002
{
1071
     1109
1005
64D1
1003
0
1011
-4.093104888850689
1021
-27.96458517387001
1031
0.0
1011
0.9068951111493106
1021
-27.96458517387001
1031
0.0
1011
-4.093104888850689
1021
-22.96458517387001
1031
0.0
1002
}
  0
LINE
  5
64D2
330
1F
100
AcDbEntity
  8
zintek
  6
Continuous
 62
     7
100
AcDbLine
 10
51.17453465372841
 20
100.4238056072517
 30
0.0
 11
51.17453465372841
 21
103.7988056072516
 31
0.0
1001
AC_800
1000
ELEMENT_19
1002
{
1071
     1108
1005
64D2
1003
0
1011
-4.093104888850689
1021
-27.96458517387001
1031
0.0
1011
0.9068951111493106
1021
-27.96458517387001
1031
0.0
1011
-4.093104888850689
1021
-22.96458517387001
1031
0.0
1002
}
  0
LINE
  5
64D3
330
1F
100
AcDbEntity
  8
zintek
  6
Continuous
 62
     7
100
AcDbLine
 10
130.1495346537285
 20
100.4238056072517
 30
0.0
 11
133.7392289738832
 21
100.4238056072517
 31
0.0
1001
AC_800
1000
ELEMENT_19
1002
{
1071
     1107
1005
64D3
1003
0
1011
-4.093104888850689
1021
-27.96458517387001
1031
0.0
1011
0.9068951111493106
1021
-27.96458517387001
1031
0.0
1011
-4.093104888850689
1021
-22.96458517387001
1031
0.0
1002
}
  0
LINE
  5
64D4
330
1F
100
AcDbEntity
  8
zintek
  6
Continuous
 62
     7
100
AcDbLine
 10
62.64953465372832
 20
100.4238056072517
 30
0.0
 11
123.3995346537284
 21
100.4238056072517
 31
0.0
1001
AC_800
1000
ELEMENT_19
1002
{
1071
     1106
1005
64D4
1003
0
1011
-4.093104888850689
1021
-27.96458517387001
1031
0.0
1011
0.9068951111493106
1021
-27.96458517387001
1031
0.0
1011
-4.093104888850689
1021
-22.96458517387001
1031
0.0
1002
}
  0
LINE
  5
64D5
330
1F
100
AcDbEntity
  8
zintek
  6
Continuous
 62
     7
100
AcDbLine
 10
51.17453465372841
 20
100.4238056072517
 30
0.0
 11
55.89953465372838
 21
100.4238056072517
 31
0.0
1001
AC_800
1000
ELEMENT_19
1002
{
1071
     1105
1005
64D5
1003
0
1011
-4.093104888850689
1021
-27.96458517387001
1031
0.0
1011
0.9068951111493106
1021
-27.96458517387001
1031
0.0
1011
-4.093104888850689
1021
-22.96458517387001
1031
0.0
1002
}
  0
LINE
  5
64D6
330
1F
100
AcDbEntity
  8
zintek
  6
Continuous
 62
     7
100
AcDbLine
 10
133.7392289738832
 20
100.4238056072517
 30
0.0
 11
133.7392289738832
 21
103.7988056072516
 31
0.0
1001
AC_800
1000
ELEMENT_19
1002
{
1071
     1104
1005
64D6
1003
0
1011
-4.093104888850689
1021
-27.96458517387001
1031
0.0
1011
0.9068951111493106
1021
-27.96458517387001
1031
0.0
1011
-4.093104888850689
1021
-22.96458517387001
1031
0.0
1002
}
  0
LINE
  5
64D7
330
1F
100
AcDbEntity
  8
zintek
  6
Continuous
 62
     7
100
AcDbLine
 10
51.17453465372841
 20
103.7988056072516
 30
0.0
 11
133.7392289738832
 21
103.7988056072516
 31
0.0
1001
AC_800
1000
ELEMENT_19
1002
{
1071
     1103
1005
64D7
1003
0
1011
-4.093104888850689
1021
-27.96458517387001
1031
0.0
1011
0.9068951111493106
1021
-27.96458517387001
1031
0.0
1011
-4.093104888850689
1021
-22.96458517387001
1031
0.0
1002
}
  0
LINE
  5
64D8
330
1F
100
AcDbEntity
  8
zintek
  6
Continuous
 62
     7
100
AcDbLine
 10
55.89953465372838
 20
100.4238056072517
 30
0.0
 11
51.17453465372841
 21
100.4238056072517
 31
0.0
1001
AC_800
1000
ELEMENT_19
1002
{
1071
     1102
1005
64D8
1003
0
1011
-4.093104888850689
1021
-27.96458517387001
1031
0.0
1011
0.9068951111493106
1021
-27.96458517387001
1031
0.0
1011
-4.093104888850689
1021
-22.96458517387001
1031
0.0
1002
}
  0
LINE
  5
64D9
330
1F
100
AcDbEntity
  8
zintek
  6
Continuous
 62
     7
100
AcDbLine
 10
123.3995346537284
 20
100.4238056072517
 30
0.0
 11
62.64953465372832
 21
100.4238056072517
 31
0.0
1001
AC_800
1000
ELEMENT_19
1002
{
1071
     1101
1005
64D9
1003
0
1011
-4.093104888850689
1021
-27.96458517387001
1031
0.0
1011
0.9068951111493106
1021
-27.96458517387001
1031
0.0
1011
-4.093104888850689
1021
-22.96458517387001
1031
0.0
1002
}
  0
LINE
  5
64DA
330
1F
100
AcDbEntity
  8
zintek
  6
Continuous
 62
     7
100
AcDbLine
 10
133.7392289738832
 20
100.4238056072517
 30
0.0
 11
130.1495346537285
 21
100.4238056072517
 31
0.0
1001
AC_800
1000
ELEMENT_19
1002
{
1071
     1100
1005
64DA
1003
0
1011
-4.093104888850689
1021
-27.96458517387001
1031
0.0
1011
0.9068951111493106
1021
-27.96458517387001
1031
0.0
1011
-4.093104888850689
1021
-22.96458517387001
1031
0.0
1002
}
  0
LINE
  5
64DB
330
1F
100
AcDbEntity
  8
zintek
  6
Continuous
 62
     7
100
AcDbLine
 10
133.7392289738832
 20
103.7988056072516
 30
0.0
 11
133.7392289738832
 21
100.4238056072517
 31
0.0
1001
AC_800
1000
ELEMENT_19
1002
{
1071
     1099
1005
64DB
1003
0
1011
-4.093104888850689
1021
-27.96458517387001
1031
0.0
1011
0.9068951111493106
1021
-27.96458517387001
1031
0.0
1011
-4.093104888850689
1021
-22.96458517387001
1031
0.0
1002
}
  0
LINE
  5
64DC
330
1F
100
AcDbEntity
  8
zintek
  6
Continuous
 62
     7
100
AcDbLine
 10
133.7392289738832
 20
103.7988056072516
 30
0.0
 11
51.17453465372841
 21
103.7988056072516
 31
0.0
1001
AC_800
1000
ELEMENT_19
1002
{
1071
     1098
1005
64DC
1003
0
1011
-4.093104888850689
1021
-27.96458517387001
1031
0.0
1011
0.9068951111493106
1021
-27.96458517387001
1031
0.0
1011
-4.093104888850689
1021
-22.96458517387001
1031
0.0
1002
}
  0
LINE
  5
64DD
330
1F
100
AcDbEntity
  8
zintek
  6
Continuous
 62
     7
100
AcDbLine
 10
51.17453465372841
 20
100.4238056072517
 30
0.0
 11
51.17453465372841
 21
103.7988056072516
 31
0.0
1001
AC_800
1000
ELEMENT_19
1002
{
1071
     1097
1005
64DD
1003
0
1011
-4.093104888850689
1021
-27.96458517387001
1031
0.0
1011
0.9068951111493106
1021
-27.96458517387001
1031
0.0
1011
-4.093104888850689
1021
-22.96458517387001
1031
0.0
1002
}
  0
LINE
  5
64DE
330
1F
100
AcDbEntity
  8
zintek
  6
Continuous
 62
     7
100
AcDbLine
 10
130.1495346537285
 20
100.4238056072517
 30
0.0
 11
133.7392289738832
 21
100.4238056072517
 31
0.0
1001
AC_800
1000
ELEMENT_19
1002
{
1071
     1096
1005
64DE
1003
0
1011
-4.093104888850689
1021
-27.96458517387001
1031
0.0
1011
0.9068951111493106
1021
-27.96458517387001
1031
0.0
1011
-4.093104888850689
1021
-22.96458517387001
1031
0.0
1002
}
  0
LINE
  5
64DF
330
1F
100
AcDbEntity
  8
zintek
  6
Continuous
 62
     7
100
AcDbLine
 10
62.64953465372832
 20
100.4238056072517
 30
0.0
 11
123.3995346537284
 21
100.4238056072517
 31
0.0
1001
AC_800
1000
ELEMENT_19
1002
{
1071
     1095
1005
64DF
1003
0
1011
-4.093104888850689
1021
-27.96458517387001
1031
0.0
1011
0.9068951111493106
1021
-27.96458517387001
1031
0.0
1011
-4.093104888850689
1021
-22.96458517387001
1031
0.0
1002
}
  0
LINE
  5
64E0
330
1F
100
AcDbEntity
  8
zintek
  6
Continuous
 62
     7
100
AcDbLine
 10
51.17453465372841
 20
100.4238056072517
 30
0.0
 11
55.89953465372838
 21
100.4238056072517
 31
0.0
1001
AC_800
1000
ELEMENT_19
1002
{
1071
     1094
1005
64E0
1003
0
1011
-4.093104888850689
1021
-27.96458517387001
1031
0.0
1011
0.9068951111493106
1021
-27.96458517387001
1031
0.0
1011
-4.093104888850689
1021
-22.96458517387001
1031
0.0
1002
}
  0
LINE
  5
64E1
330
1F
100
AcDbEntity
  8
zintek
  6
Continuous
 62
     7
100
AcDbLine
 10
133.7392289738832
 20
100.4238056072517
 30
0.0
 11
133.7392289738832
 21
103.7988056072516
 31
0.0
1001
AC_800
1000
ELEMENT_19
1002
{
1071
     1093
1005
64E1
1003
0
1011
-4.093104888850689
1021
-27.96458517387001
1031
0.0
1011
0.9068951111493106
1021
-27.96458517387001
1031
0.0
1011
-4.093104888850689
1021
-22.96458517387001
1031
0.0
1002
}
  0
LINE
  5
64E2
330
1F
100
AcDbEntity
  8
zintek
  6
Continuous
 62
     7
100
AcDbLine
 10
51.17453465372841
 20
103.7988056072516
 30
0.0
 11
133.7392289738832
 21
103.7988056072516
 31
0.0
1001
AC_800
1000
ELEMENT_19
1002
{
1071
     1092
1005
64E2
1003
0
1011
-4.093104888850689
1021
-27.96458517387001
1031
0.0
1011
0.9068951111493106
1021
-27.96458517387001
1031
0.0
1011
-4.093104888850689
1021
-22.96458517387001
1031
0.0
1002
}
  0
LINE
  5
64E3
330
1F
100
AcDbEntity
  8
zintek
  6
Continuous
 62
     7
100
AcDbLine
 10
55.89953465372838
 20
100.4238056072517
 30
0.0
 11
51.17453465372841
 21
100.4238056072517
 31
0.0
1001
AC_800
1000
ELEMENT_19
1002
{
1071
     1091
1005
64E3
1003
0
1011
-4.093104888850689
1021
-27.96458517387001
1031
0.0
1011
0.9068951111493106
1021
-27.96458517387001
1031
0.0
1011
-4.093104888850689
1021
-22.96458517387001
1031
0.0
1002
}
  0
LINE
  5
64E4
330
1F
100
AcDbEntity
  8
zintek
  6
Continuous
 62
     7
100
AcDbLine
 10
123.3995346537284
 20
100.4238056072517
 30
0.0
 11
62.64953465372832
 21
100.4238056072517
 31
0.0
1001
AC_800
1000
ELEMENT_19
1002
{
1071
     1090
1005
64E4
1003
0
1011
-4.093104888850689
1021
-27.96458517387001
1031
0.0
1011
0.9068951111493106
1021
-27.96458517387001
1031
0.0
1011
-4.093104888850689
1021
-22.96458517387001
1031
0.0
1002
}
  0
LINE
  5
64E5
330
1F
100
AcDbEntity
  8
zintek
  6
Continuous
 62
     7
100
AcDbLine
 10
133.7392289738832
 20
100.4238056072517
 30
0.0
 11
130.1495346537285
 21
100.4238056072517
 31
0.0
1001
AC_800
1000
ELEMENT_19
1002
{
1071
     1089
1005
64E5
1003
0
1011
-4.093104888850689
1021
-27.96458517387001
1031
0.0
1011
0.9068951111493106
1021
-27.96458517387001
1031
0.0
1011
-4.093104888850689
1021
-22.96458517387001
1031
0.0
1002
}
  0
LINE
  5
64E6
330
1F
100
AcDbEntity
  8
zintek
  6
Continuous
 62
     7
100
AcDbLine
 10
133.7392289738832
 20
103.7988056072516
 30
0.0
 11
133.7392289738832
 21
100.4238056072517
 31
0.0
1001
AC_800
1000
ELEMENT_19
1002
{
1071
     1088
1005
64E6
1003
0
1011
-4.093104888850689
1021
-27.96458517387001
1031
0.0
1011
0.9068951111493106
1021
-27.96458517387001
1031
0.0
1011
-4.093104888850689
1021
-22.96458517387001
1031
0.0
1002
}
  0
LINE
  5
64E7
330
1F
100
AcDbEntity
  8
zintek
  6
Continuous
 62
     7
100
AcDbLine
 10
133.7392289738832
 20
103.7988056072516
 30
0.0
 11
51.17453465372841
 21
103.7988056072516
 31
0.0
1001
AC_800
1000
ELEMENT_19
1002
{
1071
     1087
1005
64E7
1003
0
1011
-4.093104888850689
1021
-27.96458517387001
1031
0.0
1011
0.9068951111493106
1021
-27.96458517387001
1031
0.0
1011
-4.093104888850689
1021
-22.96458517387001
1031
0.0
1002
}
  0
LINE
  5
64E8
330
1F
100
AcDbEntity
  8
zintek
  6
Continuous
 62
     7
100
AcDbLine
 10
51.17453465372841
 20
100.4238056072517
 30
0.0
 11
51.17453465372841
 21
103.7988056072516
 31
0.0
1001
AC_800
1000
ELEMENT_19
1002
{
1071
     1086
1005
64E8
1003
0
1011
-4.093104888850689
1021
-27.96458517387001
1031
0.0
1011
0.9068951111493106
1021
-27.96458517387001
1031
0.0
1011
-4.093104888850689
1021
-22.96458517387001
1031
0.0
1002
}
  0
LINE
  5
64E9
330
1F
100
AcDbEntity
  8
zintek
  6
Continuous
 62
     7
100
AcDbLine
 10
130.1495346537285
 20
100.4238056072517
 30
0.0
 11
133.7392289738832
 21
100.4238056072517
 31
0.0
1001
AC_800
1000
ELEMENT_19
1002
{
1071
     1085
1005
64E9
1003
0
1011
-4.093104888850689
1021
-27.96458517387001
1031
0.0
1011
0.9068951111493106
1021
-27.96458517387001
1031
0.0
1011
-4.093104888850689
1021
-22.96458517387001
1031
0.0
1002
}
  0
LINE
  5
64EA
330
1F
100
AcDbEntity
  8
zintek
  6
Continuous
 62
     7
100
AcDbLine
 10
62.64953465372832
 20
100.4238056072517
 30
0.0
 11
123.3995346537284
 21
100.4238056072517
 31
0.0
1001
AC_800
1000
ELEMENT_19
1002
{
1071
     1084
1005
64EA
1003
0
1011
-4.093104888850689
1021
-27.96458517387001
1031
0.0
1011
0.9068951111493106
1021
-27.96458517387001
1031
0.0
1011
-4.093104888850689
1021
-22.96458517387001
1031
0.0
1002
}
  0
LINE
  5
64EB
330
1F
100
AcDbEntity
  8
zintek
  6
Continuous
 62
     7
100
AcDbLine
 10
51.17453465372841
 20
100.4238056072517
 30
0.0
 11
55.89953465372838
 21
100.4238056072517
 31
0.0
1001
AC_800
1000
ELEMENT_19
1002
{
1071
     1083
1005
64EB
1003
0
1011
-4.093104888850689
1021
-27.96458517387001
1031
0.0
1011
0.9068951111493106
1021
-27.96458517387001
1031
0.0
1011
-4.093104888850689
1021
-22.96458517387001
1031
0.0
1002
}
  0
LINE
  5
64EC
330
1F
100
AcDbEntity
  8
zintek
  6
Continuous
 62
     7
100
AcDbLine
 10
133.7392289738832
 20
100.4238056072517
 30
0.0
 11
133.7392289738832
 21
103.7988056072516
 31
0.0
1001
AC_800
1000
ELEMENT_19
1002
{
1071
     1082
1005
64EC
1003
0
1011
-4.093104888850689
1021
-27.96458517387001
1031
0.0
1011
0.9068951111493106
1021
-27.96458517387001
1031
0.0
1011
-4.093104888850689
1021
-22.96458517387001
1031
0.0
1002
}
  0
LINE
  5
64ED
330
1F
100
AcDbEntity
  8
zintek
  6
Continuous
 62
     7
100
AcDbLine
 10
51.17453465372841
 20
103.7988056072516
 30
0.0
 11
133.7392289738832
 21
103.7988056072516
 31
0.0
1001
AC_800
1000
ELEMENT_19
1002
{
1071
     1081
1005
64ED
1003
0
1011
-4.093104888850689
1021
-27.96458517387001
1031
0.0
1011
0.9068951111493106
1021
-27.96458517387001
1031
0.0
1011
-4.093104888850689
1021
-22.96458517387001
1031
0.0
1002
}
  0
LINE
  5
64EE
330
1F
100
AcDbEntity
  8
zintek
  6
Continuous
 62
     7
100
AcDbLine
 10
55.89953465372838
 20
100.4238056072517
 30
0.0
 11
51.17453465372841
 21
100.4238056072517
 31
0.0
1001
AC_800
1000
ELEMENT_19
1002
{
1071
     1080
1005
64EE
1003
0
1011
-4.093104888850689
1021
-27.96458517387001
1031
0.0
1011
0.9068951111493106
1021
-27.96458517387001
1031
0.0
1011
-4.093104888850689
1021
-22.96458517387001
1031
0.0
1002
}
  0
LINE
  5
64EF
330
1F
100
AcDbEntity
  8
zintek
  6
Continuous
 62
     7
100
AcDbLine
 10
123.3995346537284
 20
100.4238056072517
 30
0.0
 11
62.64953465372832
 21
100.4238056072517
 31
0.0
1001
AC_800
1000
ELEMENT_19
1002
{
1071
     1079
1005
64EF
1003
0
1011
-4.093104888850689
1021
-27.96458517387001
1031
0.0
1011
0.9068951111493106
1021
-27.96458517387001
1031
0.0
1011
-4.093104888850689
1021
-22.96458517387001
1031
0.0
1002
}
  0
LINE
  5
64F0
330
1F
100
AcDbEntity
  8
zintek
  6
Continuous
 62
     7
100
AcDbLine
 10
133.7392289738832
 20
100.4238056072517
 30
0.0
 11
130.1495346537285
 21
100.4238056072517
 31
0.0
1001
AC_800
1000
ELEMENT_19
1002
{
1071
     1078
1005
64F0
1003
0
1011
-4.093104888850689
1021
-27.96458517387001
1031
0.0
1011
0.9068951111493106
1021
-27.96458517387001
1031
0.0
1011
-4.093104888850689
1021
-22.96458517387001
1031
0.0
1002
}
  0
LINE
  5
64F1
330
1F
100
AcDbEntity
  8
zintek
  6
Continuous
 62
     7
100
AcDbLine
 10
133.7392289738832
 20
103.7988056072516
 30
0.0
 11
133.7392289738832
 21
100.4238056072517
 31
0.0
1001
AC_800
1000
ELEMENT_19
1002
{
1071
     1077
1005
64F1
1003
0
1011
-4.093104888850689
1021
-27.96458517387001
1031
0.0
1011
0.9068951111493106
1021
-27.96458517387001
1031
0.0
1011
-4.093104888850689
1021
-22.96458517387001
1031
0.0
1002
}
  0
LINE
  5
64F2
330
1F
100
AcDbEntity
  8
zintek
  6
Continuous
 62
     7
100
AcDbLine
 10
133.7392289738832
 20
103.7988056072516
 30
0.0
 11
51.17453465372841
 21
103.7988056072516
 31
0.0
1001
AC_800
1000
ELEMENT_19
1002
{
1071
     1076
1005
64F2
1003
0
1011
-4.093104888850689
1021
-27.96458517387001
1031
0.0
1011
0.9068951111493106
1021
-27.96458517387001
1031
0.0
1011
-4.093104888850689
1021
-22.96458517387001
1031
0.0
1002
}
  0
LINE
  5
64F3
330
1F
100
AcDbEntity
  8
zintek
  6
Continuous
 62
     7
100
AcDbLine
 10
51.17453465372841
 20
100.4238056072517
 30
0.0
 11
51.17453465372841
 21
103.7988056072516
 31
0.0
1001
AC_800
1000
ELEMENT_19
1002
{
1071
     1075
1005
64F3
1003
0
1011
-4.093104888850689
1021
-27.96458517387001
1031
0.0
1011
0.9068951111493106
1021
-27.96458517387001
1031
0.0
1011
-4.093104888850689
1021
-22.96458517387001
1031
0.0
1002
}
  0
LINE
  5
64F4
330
1F
100
AcDbEntity
  8
zintek
  6
Continuous
 62
     7
100
AcDbLine
 10
130.1495346537285
 20
100.4238056072517
 30
0.0
 11
133.7392289738832
 21
100.4238056072517
 31
0.0
1001
AC_800
1000
ELEMENT_19
1002
{
1071
     1074
1005
64F4
1003
0
1011
-4.093104888850689
1021
-27.96458517387001
1031
0.0
1011
0.9068951111493106
1021
-27.96458517387001
1031
0.0
1011
-4.093104888850689
1021
-22.96458517387001
1031
0.0
1002
}
  0
LINE
  5
64F5
330
1F
100
AcDbEntity
  8
zintek
  6
Continuous
 62
     7
100
AcDbLine
 10
62.64953465372832
 20
100.4238056072517
 30
0.0
 11
123.3995346537284
 21
100.4238056072517
 31
0.0
1001
AC_800
1000
ELEMENT_19
1002
{
1071
     1073
1005
64F5
1003
0
1011
-4.093104888850689
1021
-27.96458517387001
1031
0.0
1011
0.9068951111493106
1021
-27.96458517387001
1031
0.0
1011
-4.093104888850689
1021
-22.96458517387001
1031
0.0
1002
}
  0
LINE
  5
64F6
330
1F
100
AcDbEntity
  8
zintek
  6
Continuous
 62
     7
100
AcDbLine
 10
51.17453465372841
 20
100.4238056072517
 30
0.0
 11
55.89953465372838
 21
100.4238056072517
 31
0.0
1001
AC_800
1000
ELEMENT_19
1002
{
1071
     1072
1005
64F6
1003
0
1011
-4.093104888850689
1021
-27.96458517387001
1031
0.0
1011
0.9068951111493106
1021
-27.96458517387001
1031
0.0
1011
-4.093104888850689
1021
-22.96458517387001
1031
0.0
1002
}
  0
LINE
  5
64F7
330
1F
100
AcDbEntity
  8
zintek
  6
Continuous
 62
     7
100
AcDbLine
 10
133.7392289738832
 20
100.4238056072517
 30
0.0
 11
133.7392289738832
 21
103.7988056072516
 31
0.0
1001
AC_800
1000
ELEMENT_19
1002
{
1071
     1071
1005
64F7
1003
0
1011
-4.093104888850689
1021
-27.96458517387001
1031
0.0
1011
0.9068951111493106
1021
-27.96458517387001
1031
0.0
1011
-4.093104888850689
1021
-22.96458517387001
1031
0.0
1002
}
  0
LINE
  5
64F8
330
1F
100
AcDbEntity
  8
zintek
  6
Continuous
 62
     7
100
AcDbLine
 10
51.17453465372841
 20
103.7988056072516
 30
0.0
 11
133.7392289738832
 21
103.7988056072516
 31
0.0
1001
AC_800
1000
ELEMENT_19
1002
{
1071
     1070
1005
64F8
1003
0
1011
-4.093104888850689
1021
-27.96458517387001
1031
0.0
1011
0.9068951111493106
1021
-27.96458517387001
1031
0.0
1011
-4.093104888850689
1021
-22.96458517387001
1031
0.0
1002
}
  0
LINE
  5
64F9
330
1F
100
AcDbEntity
  8
zintek
  6
Continuous
 62
     7
100
AcDbLine
 10
55.89953465372838
 20
100.4238056072517
 30
0.0
 11
51.17453465372841
 21
100.4238056072517
 31
0.0
1001
AC_800
1000
ELEMENT_19
1002
{
1071
     1069
1005
64F9
1003
0
1011
-4.093104888850689
1021
-27.96458517387001
1031
0.0
1011
0.9068951111493106
1021
-27.96458517387001
1031
0.0
1011
-4.093104888850689
1021
-22.96458517387001
1031
0.0
1002
}
  0
LINE
  5
64FA
330
1F
100
AcDbEntity
  8
zintek
  6
Continuous
 62
     7
100
AcDbLine
 10
123.3995346537284
 20
100.4238056072517
 30
0.0
 11
62.64953465372832
 21
100.4238056072517
 31
0.0
1001
AC_800
1000
ELEMENT_19
1002
{
1071
     1068
1005
64FA
1003
0
1011
-4.093104888850689
1021
-27.96458517387001
1031
0.0
1011
0.9068951111493106
1021
-27.96458517387001
1031
0.0
1011
-4.093104888850689
1021
-22.96458517387001
1031
0.0
1002
}
  0
LINE
  5
64FB
330
1F
100
AcDbEntity
  8
zintek
  6
Continuous
 62
     7
100
AcDbLine
 10
133.7392289738832
 20
100.4238056072517
 30
0.0
 11
130.1495346537285
 21
100.4238056072517
 31
0.0
1001
AC_800
1000
ELEMENT_19
1002
{
1071
     1067
1005
64FB
1003
0
1011
-4.093104888850689
1021
-27.96458517387001
1031
0.0
1011
0.9068951111493106
1021
-27.96458517387001
1031
0.0
1011
-4.093104888850689
1021
-22.96458517387001
1031
0.0
1002
}
  0
LINE
  5
64FC
330
1F
100
AcDbEntity
  8
zintek
  6
Continuous
 62
     7
100
AcDbLine
 10
133.7392289738832
 20
103.7988056072516
 30
0.0
 11
133.7392289738832
 21
100.4238056072517
 31
0.0
1001
AC_800
1000
ELEMENT_19
1002
{
1071
     1066
1005
64FC
1003
0
1011
-4.093104888850689
1021
-27.96458517387001
1031
0.0
1011
0.9068951111493106
1021
-27.96458517387001
1031
0.0
1011
-4.093104888850689
1021
-22.96458517387001
1031
0.0
1002
}
  0
LINE
  5
64FD
330
1F
100
AcDbEntity
  8
zintek
  6
Continuous
 62
     7
100
AcDbLine
 10
133.7392289738832
 20
103.7988056072516
 30
0.0
 11
51.17453465372841
 21
103.7988056072516
 31
0.0
1001
AC_800
1000
ELEMENT_19
1002
{
1071
     1065
1005
64FD
1003
0
1011
-4.093104888850689
1021
-27.96458517387001
1031
0.0
1011
0.9068951111493106
1021
-27.96458517387001
1031
0.0
1011
-4.093104888850689
1021
-22.96458517387001
1031
0.0
1002
}
  0
LINE
  5
64FE
330
1F
100
AcDbEntity
  8
zintek
  6
Continuous
 62
     7
100
AcDbLine
 10
51.17453465372841
 20
100.4238056072517
 30
0.0
 11
51.17453465372841
 21
103.7988056072516
 31
0.0
1001
AC_800
1000
ELEMENT_19
1002
{
1071
     1064
1005
64FE
1003
0
1011
-4.093104888850689
1021
-27.96458517387001
1031
0.0
1011
0.9068951111493106
1021
-27.96458517387001
1031
0.0
1011
-4.093104888850689
1021
-22.96458517387001
1031
0.0
1002
}
  0
LINE
  5
64FF
330
1F
100
AcDbEntity
  8
zintek
  6
Continuous
 62
     7
100
AcDbLine
 10
130.1495346537285
 20
100.4238056072517
 30
0.0
 11
133.7392289738832
 21
100.4238056072517
 31
0.0
1001
AC_800
1000
ELEMENT_19
1002
{
1071
     1063
1005
64FF
1003
0
1011
-4.093104888850689
1021
-27.96458517387001
1031
0.0
1011
0.9068951111493106
1021
-27.96458517387001
1031
0.0
1011
-4.093104888850689
1021
-22.96458517387001
1031
0.0
1002
}
  0
LINE
  5
6500
330
1F
100
AcDbEntity
  8
zintek
  6
Continuous
 62
     7
100
AcDbLine
 10
62.64953465372832
 20
100.4238056072517
 30
0.0
 11
123.3995346537284
 21
100.4238056072517
 31
0.0
1001
AC_800
1000
ELEMENT_19
1002
{
1071
     1062
1005
6500
1003
0
1011
-4.093104888850689
1021
-27.96458517387001
1031
0.0
1011
0.9068951111493106
1021
-27.96458517387001
1031
0.0
1011
-4.093104888850689
1021
-22.96458517387001
1031
0.0
1002
}
  0
LINE
  5
6501
330
1F
100
AcDbEntity
  8
zintek
  6
Continuous
 62
     7
100
AcDbLine
 10
51.17453465372841
 20
100.4238056072517
 30
0.0
 11
55.89953465372838
 21
100.4238056072517
 31
0.0
1001
AC_800
1000
ELEMENT_19
1002
{
1071
     1061
1005
6501
1003
0
1011
-4.093104888850689
1021
-27.96458517387001
1031
0.0
1011
0.9068951111493106
1021
-27.96458517387001
1031
0.0
1011
-4.093104888850689
1021
-22.96458517387001
1031
0.0
1002
}
  0
LINE
  5
6502
330
1F
100
AcDbEntity
  8
zintek
  6
Continuous
 62
     7
100
AcDbLine
 10
133.7392289738832
 20
100.4238056072517
 30
0.0
 11
133.7392289738832
 21
103.7988056072516
 31
0.0
1001
AC_800
1000
ELEMENT_19
1002
{
1071
     1060
1005
6502
1003
0
1011
-4.093104888850689
1021
-27.96458517387001
1031
0.0
1011
0.9068951111493106
1021
-27.96458517387001
1031
0.0
1011
-4.093104888850689
1021
-22.96458517387001
1031
0.0
1002
}
  0
LINE
  5
6503
330
1F
100
AcDbEntity
  8
zintek
  6
Continuous
 62
     7
100
AcDbLine
 10
51.17453465372841
 20
103.7988056072516
 30
0.0
 11
133.7392289738832
 21
103.7988056072516
 31
0.0
1001
AC_800
1000
ELEMENT_19
1002
{
1071
     1059
1005
6503
1003
0
1011
-4.093104888850689
1021
-27.96458517387001
1031
0.0
1011
0.9068951111493106
1021
-27.96458517387001
1031
0.0
1011
-4.093104888850689
1021
-22.96458517387001
1031
0.0
1002
}
  0
LINE
  5
6504
330
1F
100
AcDbEntity
  8
zintek
  6
Continuous
 62
     7
100
AcDbLine
 10
51.17453465372841
 20
75.44880560725167
 30
0.0
 11
51.17453465372841
 21
78.82380560725159
 31
0.0
1001
AC_800
1000
ELEMENT_19
1002
{
1071
     1058
1005
6504
1003
0
1011
-4.093104888850689
1021
-27.96458517387001
1031
0.0
1011
0.9068951111493106
1021
-27.96458517387001
1031
0.0
1011
-4.093104888850689
1021
-22.96458517387001
1031
0.0
1002
}
  0
LINE
  5
6505
330
1F
100
AcDbEntity
  8
zintek
  6
Continuous
 62
     7
100
AcDbLine
 10
51.17453465372841
 20
75.44880560725167
 30
0.0
 11
51.17453465372841
 21
78.82380560725159
 31
0.0
1001
AC_800
1000
ELEMENT_19
1002
{
1071
     1057
1005
6505
1003
0
1011
-4.093104888850689
1021
-27.96458517387001
1031
0.0
1011
0.9068951111493106
1021
-27.96458517387001
1031
0.0
1011
-4.093104888850689
1021
-22.96458517387001
1031
0.0
1002
}
  0
LINE
  5
6506
330
1F
100
AcDbEntity
  8
zintek
  6
Continuous
 62
     7
100
AcDbLine
 10
51.17453465372841
 20
75.44880560725167
 30
0.0
 11
51.17453465372841
 21
78.82380560725159
 31
0.0
1001
AC_800
1000
ELEMENT_19
1002
{
1071
     1056
1005
6506
1003
0
1011
-4.093104888850689
1021
-27.96458517387001
1031
0.0
1011
0.9068951111493106
1021
-27.96458517387001
1031
0.0
1011
-4.093104888850689
1021
-22.96458517387001
1031
0.0
1002
}
  0
LINE
  5
6507
330
1F
100
AcDbEntity
  8
zintek
  6
Continuous
 62
     7
100
AcDbLine
 10
133.7392289738832
 20
75.44880560725167
 30
0.0
 11
51.17453465372841
 21
75.44880560725167
 31
0.0
1001
AC_800
1000
ELEMENT_19
1002
{
1071
     1055
1005
6507
1003
0
1011
-4.093104888850689
1021
-27.96458517387001
1031
0.0
1011
0.9068951111493106
1021
-27.96458517387001
1031
0.0
1011
-4.093104888850689
1021
-22.96458517387001
1031
0.0
1002
}
  0
LINE
  5
6508
330
1F
100
AcDbEntity
  8
zintek
  6
Continuous
 62
     7
100
AcDbLine
 10
133.7392289738832
 20
78.82380560725159
 30
0.0
 11
133.7392289738832
 21
75.44880560725167
 31
0.0
1001
AC_800
1000
ELEMENT_19
1002
{
1071
     1054
1005
6508
1003
0
1011
-4.093104888850689
1021
-27.96458517387001
1031
0.0
1011
0.9068951111493106
1021
-27.96458517387001
1031
0.0
1011
-4.093104888850689
1021
-22.96458517387001
1031
0.0
1002
}
  0
LINE
  5
6509
330
1F
100
AcDbEntity
  8
zintek
  6
Continuous
 62
     7
100
AcDbLine
 10
133.7392289738832
 20
78.82380560725159
 30
0.0
 11
51.17453465372841
 21
78.82380560725159
 31
0.0
1001
AC_800
1000
ELEMENT_19
1002
{
1071
     1053
1005
6509
1003
0
1011
-4.093104888850689
1021
-27.96458517387001
1031
0.0
1011
0.9068951111493106
1021
-27.96458517387001
1031
0.0
1011
-4.093104888850689
1021
-22.96458517387001
1031
0.0
1002
}
  0
LINE
  5
650A
330
1F
100
AcDbEntity
  8
zintek
  6
Continuous
 62
     7
100
AcDbLine
 10
51.17453465372841
 20
78.82380560725159
 30
0.0
 11
51.17453465372841
 21
75.44880560725167
 31
0.0
1001
AC_800
1000
ELEMENT_19
1002
{
1071
     1052
1005
650A
1003
0
1011
-4.093104888850689
1021
-27.96458517387001
1031
0.0
1011
0.9068951111493106
1021
-27.96458517387001
1031
0.0
1011
-4.093104888850689
1021
-22.96458517387001
1031
0.0
1002
}
  0
LINE
  5
650B
330
1F
100
AcDbEntity
  8
zintek
  6
Continuous
 62
     7
100
AcDbLine
 10
51.17453465372841
 20
75.44880560725167
 30
0.0
 11
51.17453465372841
 21
78.82380560725159
 31
0.0
1001
AC_800
1000
ELEMENT_19
1002
{
1071
     1051
1005
650B
1003
0
1011
-4.093104888850689
1021
-27.96458517387001
1031
0.0
1011
0.9068951111493106
1021
-27.96458517387001
1031
0.0
1011
-4.093104888850689
1021
-22.96458517387001
1031
0.0
1002
}
  0
LINE
  5
650C
330
1F
100
AcDbEntity
  8
zintek
  6
Continuous
 62
     7
100
AcDbLine
 10
51.17453465372841
 20
75.44880560725167
 30
0.0
 11
51.17453465372841
 21
78.82380560725159
 31
0.0
1001
AC_800
1000
ELEMENT_19
1002
{
1071
     1050
1005
650C
1003
0
1011
-4.093104888850689
1021
-27.96458517387001
1031
0.0
1011
0.9068951111493106
1021
-27.96458517387001
1031
0.0
1011
-4.093104888850689
1021
-22.96458517387001
1031
0.0
1002
}
  0
LINE
  5
650D
330
1F
100
AcDbEntity
  8
zintek
  6
Continuous
 62
     7
100
AcDbLine
 10
51.17453465372841
 20
75.44880560725167
 30
0.0
 11
51.17453465372841
 21
78.82380560725159
 31
0.0
1001
AC_800
1000
ELEMENT_19
1002
{
1071
     1049
1005
650D
1003
0
1011
-4.093104888850689
1021
-27.96458517387001
1031
0.0
1011
0.9068951111493106
1021
-27.96458517387001
1031
0.0
1011
-4.093104888850689
1021
-22.96458517387001
1031
0.0
1002
}
  0
LINE
  5
650E
330
1F
100
AcDbEntity
  8
zintek
  6
Continuous
 62
     7
100
AcDbLine
 10
51.17453465372841
 20
75.44880560725167
 30
0.0
 11
51.17453465372841
 21
78.82380560725159
 31
0.0
1001
AC_800
1000
ELEMENT_19
1002
{
1071
     1048
1005
650E
1003
0
1011
-4.093104888850689
1021
-27.96458517387001
1031
0.0
1011
0.9068951111493106
1021
-27.96458517387001
1031
0.0
1011
-4.093104888850689
1021
-22.96458517387001
1031
0.0
1002
}
  0
LINE
  5
650F
330
1F
100
AcDbEntity
  8
zintek
  6
Continuous
 62
     7
100
AcDbLine
 10
55.89953465372838
 20
100.4238056072517
 30
0.0
 11
51.17453465372841
 21
100.4238056072517
 31
0.0
1001
AC_800
1000
ELEMENT_19
1002
{
1071
     1047
1005
650F
1003
0
1011
-4.093104888850689
1021
-27.96458517387001
1031
0.0
1011
0.9068951111493106
1021
-27.96458517387001
1031
0.0
1011
-4.093104888850689
1021
-22.96458517387001
1031
0.0
1002
}
  0
LINE
  5
6510
330
1F
100
AcDbEntity
  8
zintek
  6
Continuous
 62
     7
100
AcDbLine
 10
123.3995346537284
 20
100.4238056072517
 30
0.0
 11
62.64953465372832
 21
100.4238056072517
 31
0.0
1001
AC_800
1000
ELEMENT_19
1002
{
1071
     1046
1005
6510
1003
0
1011
-4.093104888850689
1021
-27.96458517387001
1031
0.0
1011
0.9068951111493106
1021
-27.96458517387001
1031
0.0
1011
-4.093104888850689
1021
-22.96458517387001
1031
0.0
1002
}
  0
LINE
  5
6511
330
1F
100
AcDbEntity
  8
zintek
  6
Continuous
 62
     7
100
AcDbLine
 10
133.7392289738832
 20
100.4238056072517
 30
0.0
 11
130.1495346537285
 21
100.4238056072517
 31
0.0
1001
AC_800
1000
ELEMENT_19
1002
{
1071
     1045
1005
6511
1003
0
1011
-4.093104888850689
1021
-27.96458517387001
1031
0.0
1011
0.9068951111493106
1021
-27.96458517387001
1031
0.0
1011
-4.093104888850689
1021
-22.96458517387001
1031
0.0
1002
}
  0
LINE
  5
6512
330
1F
100
AcDbEntity
  8
zintek
  6
Continuous
 62
     7
100
AcDbLine
 10
133.7392289738832
 20
103.7988056072516
 30
0.0
 11
133.7392289738832
 21
100.4238056072517
 31
0.0
1001
AC_800
1000
ELEMENT_19
1002
{
1071
     1044
1005
6512
1003
0
1011
-4.093104888850689
1021
-27.96458517387001
1031
0.0
1011
0.9068951111493106
1021
-27.96458517387001
1031
0.0
1011
-4.093104888850689
1021
-22.96458517387001
1031
0.0
1002
}
  0
LINE
  5
6513
330
1F
100
AcDbEntity
  8
zintek
  6
Continuous
 62
     7
100
AcDbLine
 10
133.7392289738832
 20
103.7988056072516
 30
0.0
 11
51.17453465372841
 21
103.7988056072516
 31
0.0
1001
AC_800
1000
ELEMENT_19
1002
{
1071
     1043
1005
6513
1003
0
1011
-4.093104888850689
1021
-27.96458517387001
1031
0.0
1011
0.9068951111493106
1021
-27.96458517387001
1031
0.0
1011
-4.093104888850689
1021
-22.96458517387001
1031
0.0
1002
}
  0
LINE
  5
6514
330
1F
100
AcDbEntity
  8
zintek
  6
Continuous
 62
     7
100
AcDbLine
 10
51.17453465372841
 20
100.4238056072517
 30
0.0
 11
51.17453465372841
 21
103.7988056072516
 31
0.0
1001
AC_800
1000
ELEMENT_19
1002
{
1071
     1042
1005
6514
1003
0
1011
-4.093104888850689
1021
-27.96458517387001
1031
0.0
1011
0.9068951111493106
1021
-27.96458517387001
1031
0.0
1011
-4.093104888850689
1021
-22.96458517387001
1031
0.0
1002
}
  0
LINE
  5
6515
330
1F
100
AcDbEntity
  8
zintek
  6
Continuous
 62
     7
100
AcDbLine
 10
130.1495346537285
 20
100.4238056072517
 30
0.0
 11
133.7392289738832
 21
100.4238056072517
 31
0.0
1001
AC_800
1000
ELEMENT_19
1002
{
1071
     1041
1005
6515
1003
0
1011
-4.093104888850689
1021
-27.96458517387001
1031
0.0
1011
0.9068951111493106
1021
-27.96458517387001
1031
0.0
1011
-4.093104888850689
1021
-22.96458517387001
1031
0.0
1002
}
  0
LINE
  5
6516
330
1F
100
AcDbEntity
  8
zintek
  6
Continuous
 62
     7
100
AcDbLine
 10
62.64953465372832
 20
100.4238056072517
 30
0.0
 11
123.3995346537284
 21
100.4238056072517
 31
0.0
1001
AC_800
1000
ELEMENT_19
1002
{
1071
     1040
1005
6516
1003
0
1011
-4.093104888850689
1021
-27.96458517387001
1031
0.0
1011
0.9068951111493106
1021
-27.96458517387001
1031
0.0
1011
-4.093104888850689
1021
-22.96458517387001
1031
0.0
1002
}
  0
LINE
  5
6517
330
1F
100
AcDbEntity
  8
zintek
  6
Continuous
 62
     7
100
AcDbLine
 10
51.17453465372841
 20
100.4238056072517
 30
0.0
 11
55.89953465372838
 21
100.4238056072517
 31
0.0
1001
AC_800
1000
ELEMENT_19
1002
{
1071
     1039
1005
6517
1003
0
1011
-4.093104888850689
1021
-27.96458517387001
1031
0.0
1011
0.9068951111493106
1021
-27.96458517387001
1031
0.0
1011
-4.093104888850689
1021
-22.96458517387001
1031
0.0
1002
}
  0
LINE
  5
6518
330
1F
100
AcDbEntity
  8
zintek
  6
Continuous
 62
     7
100
AcDbLine
 10
133.7392289738832
 20
100.4238056072517
 30
0.0
 11
133.7392289738832
 21
103.7988056072516
 31
0.0
1001
AC_800
1000
ELEMENT_19
1002
{
1071
     1038
1005
6518
1003
0
1011
-4.093104888850689
1021
-27.96458517387001
1031
0.0
1011
0.9068951111493106
1021
-27.96458517387001
1031
0.0
1011
-4.093104888850689
1021
-22.96458517387001
1031
0.0
1002
}
  0
LINE
  5
6519
330
1F
100
AcDbEntity
  8
zintek
  6
Continuous
 62
     7
100
AcDbLine
 10
51.17453465372841
 20
103.7988056072516
 30
0.0
 11
133.7392289738832
 21
103.7988056072516
 31
0.0
1001
AC_800
1000
ELEMENT_19
1002
{
1071
     1037
1005
6519
1003
0
1011
-4.093104888850689
1021
-27.96458517387001
1031
0.0
1011
0.9068951111493106
1021
-27.96458517387001
1031
0.0
1011
-4.093104888850689
1021
-22.96458517387001
1031
0.0
1002
}
  0
LINE
  5
651A
330
1F
100
AcDbEntity
  8
zintek
  6
Continuous
 62
   120
100
AcDbLine
 10
133.7392289738832
 20
92.99880560725162
 30
0.0
 11
51.17453465372841
 21
92.99880560725162
 31
0.0
1001
AC_800
1000
ELEMENT_19
1002
{
1071
     1036
1005
651A
1003
0
1011
-4.093104888850689
1021
-27.96458517387001
1031
0.0
1011
0.9068951111493106
1021
-27.96458517387001
1031
0.0
1011
-4.093104888850689
1021
-22.96458517387001
1031
0.0
1002
}
  0
LINE
  5
651B
330
1F
100
AcDbEntity
  8
zintek
  6
Continuous
 62
     7
100
AcDbLine
 10
130.1495346537285
 20
93.67380560725157
 30
0.0
 11
123.3995346537286
 21
93.67380560725157
 31
0.0
1001
AC_800
1000
ELEMENT_19
1002
{
1071
     1034
1005
651B
1003
0
1011
-4.093104888850689
1021
-27.96458517387001
1031
0.0
1011
0.9068951111493106
1021
-27.96458517387001
1031
0.0
1011
-4.093104888850689
1021
-22.96458517387001
1031
0.0
1002
}
  0
LINE
  5
651C
330
1F
100
AcDbEntity
  8
zintek
  6
Continuous
 62
     7
100
AcDbLine
 10
51.17453465372841
 20
75.44880560725167
 30
0.0
 11
51.17453465372841
 21
78.82380560725159
 31
0.0
1001
AC_800
1000
ELEMENT_19
1002
{
1071
     1031
1005
651C
1003
0
1011
-4.093104888850689
1021
-27.96458517387001
1031
0.0
1011
0.9068951111493106
1021
-27.96458517387001
1031
0.0
1011
-4.093104888850689
1021
-22.96458517387001
1031
0.0
1002
}
  0
LINE
  5
651D
330
1F
100
AcDbEntity
  8
zintek
  6
Continuous
 62
     7
100
AcDbLine
 10
51.17453465372841
 20
75.44880560725167
 30
0.0
 11
51.17453465372841
 21
78.82380560725159
 31
0.0
1001
AC_800
1000
ELEMENT_19
1002
{
1071
     1030
1005
651D
1003
0
1011
-4.093104888850689
1021
-27.96458517387001
1031
0.0
1011
0.9068951111493106
1021
-27.96458517387001
1031
0.0
1011
-4.093104888850689
1021
-22.96458517387001
1031
0.0
1002
}
  0
LINE
  5
651E
330
1F
100
AcDbEntity
  8
zintek
  6
Continuous
 62
     7
100
AcDbLine
 10
51.17453465372841
 20
75.44880560725167
 30
0.0
 11
51.17453465372841
 21
78.82380560725159
 31
0.0
1001
AC_800
1000
ELEMENT_19
1002
{
1071
     1029
1005
651E
1003
0
1011
-4.093104888850689
1021
-27.96458517387001
1031
0.0
1011
0.9068951111493106
1021
-27.96458517387001
1031
0.0
1011
-4.093104888850689
1021
-22.96458517387001
1031
0.0
1002
}
  0
LINE
  5
651F
330
1F
100
AcDbEntity
  8
zintek
  6
Continuous
 62
     7
100
AcDbLine
 10
51.17453465372841
 20
75.44880560725167
 30
0.0
 11
51.17453465372841
 21
78.82380560725159
 31
0.0
1001
AC_800
1000
ELEMENT_19
1002
{
1071
     1028
1005
651F
1003
0
1011
-4.093104888850689
1021
-27.96458517387001
1031
0.0
1011
0.9068951111493106
1021
-27.96458517387001
1031
0.0
1011
-4.093104888850689
1021
-22.96458517387001
1031
0.0
1002
}
  0
LINE
  5
6520
330
1F
100
AcDbEntity
  8
zintek
  6
Continuous
 62
   120
100
AcDbLine
 10
133.7392289738832
 20
79.49880560725168
 30
0.0
 11
51.17453465372841
 21
79.49880560725168
 31
0.0
1001
AC_800
1000
ELEMENT_19
1002
{
1071
     1026
1005
6520
1003
0
1011
-4.093104888850689
1021
-27.96458517387001
1031
0.0
1011
0.9068951111493106
1021
-27.96458517387001
1031
0.0
1011
-4.093104888850689
1021
-22.96458517387001
1031
0.0
1002
}
  0
LINE
  5
6521
330
1F
100
AcDbEntity
  8
zintek
  6
Continuous
 62
     7
100
AcDbLine
 10
51.17453465372841
 20
75.44880560725167
 30
0.0
 11
51.17453465372841
 21
78.82380560725159
 31
0.0
1001
AC_800
1000
ELEMENT_19
1002
{
1071
     1023
1005
6521
1003
0
1011
-4.093104888850689
1021
-27.96458517387001
1031
0.0
1011
0.9068951111493106
1021
-27.96458517387001
1031
0.0
1011
-4.093104888850689
1021
-22.96458517387001
1031
0.0
1002
}
  0
LINE
  5
6522
330
1F
100
AcDbEntity
  8
zintek
  6
Continuous
 62
     7
100
AcDbLine
 10
133.7392289738832
 20
75.44880560725167
 30
0.0
 11
133.7392289738832
 21
78.82380560725159
 31
0.0
1001
AC_800
1000
ELEMENT_19
1002
{
1071
     1022
1005
6522
1003
0
1011
-4.093104888850689
1021
-27.96458517387001
1031
0.0
1011
0.9068951111493106
1021
-27.96458517387001
1031
0.0
1011
-4.093104888850689
1021
-22.96458517387001
1031
0.0
1002
}
  0
LINE
  5
6523
330
1F
100
AcDbEntity
  8
zintek
  6
Continuous
 62
     7
100
AcDbLine
 10
55.89953465372855
 20
100.4238056072517
 30
0.0
 11
62.64953465372849
 21
100.4238056072517
 31
0.0
1001
AC_800
1000
ELEMENT_19
1002
{
1071
     1021
1005
6523
1003
0
1011
-4.093104888850689
1021
-27.96458517387001
1031
0.0
1011
0.9068951111493106
1021
-27.96458517387001
1031
0.0
1011
-4.093104888850689
1021
-22.96458517387001
1031
0.0
1002
}
  0
LINE
  5
6524
330
1F
100
AcDbEntity
  8
zintek
  6
Continuous
 62
     7
100
AcDbLine
 10
62.64953465372849
 20
93.67380560725157
 30
0.0
 11
62.64953465372849
 21
100.4238056072517
 31
0.0
1001
AC_800
1000
ELEMENT_19
1002
{
1071
     1020
1005
6524
1003
0
1011
-4.093104888850689
1021
-27.96458517387001
1031
0.0
1011
0.9068951111493106
1021
-27.96458517387001
1031
0.0
1011
-4.093104888850689
1021
-22.96458517387001
1031
0.0
1002
}
  0
LINE
  5
6525
330
1F
100
AcDbEntity
  8
zintek
  6
Continuous
 62
     7
100
AcDbLine
 10
55.89953465372855
 20
93.67380560725157
 30
0.0
 11
55.89953465372855
 21
100.4238056072517
 31
0.0
1001
AC_800
1000
ELEMENT_19
1002
{
1071
     1019
1005
6525
1003
0
1011
-4.093104888850689
1021
-27.96458517387001
1031
0.0
1011
0.9068951111493106
1021
-27.96458517387001
1031
0.0
1011
-4.093104888850689
1021
-22.96458517387001
1031
0.0
1002
}
  0
LINE
  5
6526
330
1F
100
AcDbEntity
  8
zintek
  6
Continuous
 62
     7
100
AcDbLine
 10
123.3995346537284
 20
100.4238056072517
 30
0.0
 11
130.1495346537285
 21
100.4238056072517
 31
0.0
1001
AC_800
1000
ELEMENT_19
1002
{
1071
     1018
1005
6526
1003
0
1011
-4.093104888850689
1021
-27.96458517387001
1031
0.0
1011
0.9068951111493106
1021
-27.96458517387001
1031
0.0
1011
-4.093104888850689
1021
-22.96458517387001
1031
0.0
1002
}
  0
LINE
  5
6527
330
1F
100
AcDbEntity
  8
zintek
  6
Continuous
 62
     7
100
AcDbLine
 10
130.1495346537285
 20
93.67380560725157
 30
0.0
 11
130.1495346537285
 21
100.4238056072517
 31
0.0
1001
AC_800
1000
ELEMENT_19
1002
{
1071
     1017
1005
6527
1003
0
1011
-4.093104888850689
1021
-27.96458517387001
1031
0.0
1011
0.9068951111493106
1021
-27.96458517387001
1031
0.0
1011
-4.093104888850689
1021
-22.96458517387001
1031
0.0
1002
}
  0
LINE
  5
6528
330
1F
100
AcDbEntity
  8
zintek
  6
Continuous
 62
     7
100
AcDbLine
 10
133.7392289738832
 20
55.19880560725161
 30
0.0
 11
133.7392289738832
 21
75.44880560725167
 31
0.0
1001
AC_800
1000
ELEMENT_19
1002
{
1071
     1015
1005
6528
1003
0
1011
-4.093104888850689
1021
-27.96458517387001
1031
0.0
1011
0.9068951111493106
1021
-27.96458517387001
1031
0.0
1011
-4.093104888850689
1021
-22.96458517387001
1031
0.0
1002
}
  0
LINE
  5
6529
330
1F
100
AcDbEntity
  8
zintek
  6
Continuous
 62
     7
100
AcDbLine
 10
133.7392289738832
 20
75.44880560725167
 30
0.0
 11
133.7392289738832
 21
55.19880560725161
 31
0.0
1001
AC_800
1000
ELEMENT_19
1002
{
1071
     1014
1005
6529
1003
0
1011
-4.093104888850689
1021
-27.96458517387001
1031
0.0
1011
0.9068951111493106
1021
-27.96458517387001
1031
0.0
1011
-4.093104888850689
1021
-22.96458517387001
1031
0.0
1002
}
  0
LINE
  5
652A
330
1F
100
AcDbEntity
  8
zintek
  6
Continuous
 62
     7
100
AcDbLine
 10
133.7392289738832
 20
75.44880560725167
 30
0.0
 11
118.6745346537284
 21
75.44880560725167
 31
0.0
1001
AC_800
1000
ELEMENT_19
1002
{
1071
     1013
1005
652A
1003
0
1011
-4.093104888850689
1021
-27.96458517387001
1031
0.0
1011
0.9068951111493106
1021
-27.96458517387001
1031
0.0
1011
-4.093104888850689
1021
-22.96458517387001
1031
0.0
1002
}
  0
LINE
  5
652B
330
1F
100
AcDbEntity
  8
zintek
  6
Continuous
 62
     7
100
AcDbLine
 10
133.7392289738832
 20
55.19880560725161
 30
0.0
 11
118.6745346537284
 21
55.19880560725161
 31
0.0
1001
AC_800
1000
ELEMENT_19
1002
{
1071
     1012
1005
652B
1003
0
1011
-4.093104888850689
1021
-27.96458517387001
1031
0.0
1011
0.9068951111493106
1021
-27.96458517387001
1031
0.0
1011
-4.093104888850689
1021
-22.96458517387001
1031
0.0
1002
}
  0
LINE
  5
652C
330
1F
100
AcDbEntity
  8
zintek
  6
Continuous
 62
     7
100
AcDbLine
 10
118.6745346537284
 20
75.44880560725167
 30
0.0
 11
118.6745346537284
 21
55.19880560725161
 31
0.0
1001
AC_800
1000
ELEMENT_19
1002
{
1071
     1011
1005
652C
1003
0
1011
-4.093104888850689
1021
-27.96458517387001
1031
0.0
1011
0.9068951111493106
1021
-27.96458517387001
1031
0.0
1011
-4.093104888850689
1021
-22.96458517387001
1031
0.0
1002
}
  0
LINE
  5
652D
330
1F
100
AcDbEntity
  8
zintek
  6
Continuous
 62
     7
100
AcDbLine
 10
67.37453465372846
 20
75.44880560725167
 30
0.0
 11
51.17453465372841
 21
75.44880560725167
 31
0.0
1001
AC_800
1000
ELEMENT_19
1002
{
1071
     1010
1005
652D
1003
0
1011
-4.093104888850689
1021
-27.96458517387001
1031
0.0
1011
0.9068951111493106
1021
-27.96458517387001
1031
0.0
1011
-4.093104888850689
1021
-22.96458517387001
1031
0.0
1002
}
  0
LINE
  5
652E
330
1F
100
AcDbEntity
  8
zintek
  6
Continuous
 62
     7
100
AcDbLine
 10
67.37453465372846
 20
55.19880560725161
 30
0.0
 11
51.17453465372841
 21
55.19880560725161
 31
0.0
1001
AC_800
1000
ELEMENT_19
1002
{
1071
     1009
1005
652E
1003
0
1011
-4.093104888850689
1021
-27.96458517387001
1031
0.0
1011
0.9068951111493106
1021
-27.96458517387001
1031
0.0
1011
-4.093104888850689
1021
-22.96458517387001
1031
0.0
1002
}
  0
LINE
  5
652F
330
1F
100
AcDbEntity
  8
zintek
  6
Continuous
 62
     7
100
AcDbLine
 10
51.17453465372841
 20
75.44880560725167
 30
0.0
 11
51.17453465372841
 21
55.19880560725161
 31
0.0
1001
AC_800
1000
ELEMENT_19
1002
{
1071
     1008
1005
652F
1003
0
1011
-4.093104888850689
1021
-27.96458517387001
1031
0.0
1011
0.9068951111493106
1021
-27.96458517387001
1031
0.0
1011
-4.093104888850689
1021
-22.96458517387001
1031
0.0
1002
}
  0
LINE
  5
6530
330
1F
100
AcDbEntity
  8
zintek
  6
Continuous
 62
     7
100
AcDbLine
 10
67.37453465372846
 20
75.44880560725167
 30
0.0
 11
67.37453465372846
 21
55.19880560725161
 31
0.0
1001
AC_800
1000
ELEMENT_19
1002
{
1071
     1007
1005
6530
1003
0
1011
-4.093104888850689
1021
-27.96458517387001
1031
0.0
1011
0.9068951111493106
1021
-27.96458517387001
1031
0.0
1011
-4.093104888850689
1021
-22.96458517387001
1031
0.0
1002
}
  0
LINE
  5
6531
330
1F
100
AcDbEntity
  8
zintek
  6
Continuous
 62
     7
100
AcDbLine
 10
67.37453465372846
 20
55.19880560725161
 30
0.0
 11
67.37453465372846
 21
75.44880560725167
 31
0.0
1001
AC_800
1000
ELEMENT_19
1002
{
1071
     1006
1005
6531
1003
0
1011
-4.093104888850689
1021
-27.96458517387001
1031
0.0
1011
0.9068951111493106
1021
-27.96458517387001
1031
0.0
1011
-4.093104888850689
1021
-22.96458517387001
1031
0.0
1002
}
  0
LINE
  5
6532
330
1F
100
AcDbEntity
  8
zintek
  6
Continuous
 62
     7
100
AcDbLine
 10
119.3493793733599
 20
103.7988126574915
 30
0.0
 11
51.17453465372841
 21
103.7988126574915
 31
0.0
1001
AC_800
1000
ELEMENT_19
1002
{
1071
     1002
1005
6532
1003
0
1011
-4.093104888850689
1021
-27.96458517387001
1031
0.0
1011
0.9068951111493106
1021
-27.96458517387001
1031
0.0
1011
-4.093104888850689
1021
-22.96458517387001
1031
0.0
1002
}
  0
LINE
  5
6533
330
1F
100
AcDbEntity
  8
zintek
  6
Continuous
 62
     7
100
AcDbLine
 10
119.4168793733589
 20
103.7988126574915
 30
0.0
 11
133.7392289738832
 21
103.7988126574915
 31
0.0
1001
AC_800
1000
ELEMENT_19
1002
{
1071
      990
1005
6533
1003
0
1011
-4.093104888850689
1021
-27.96458517387001
1031
0.0
1011
0.9068951111493106
1021
-27.96458517387001
1031
0.0
1011
-4.093104888850689
1021
-22.96458517387001
1031
0.0
1002
}
  0
LINE
  5
6534
330
1F
100
AcDbEntity
  8
zintek
  6
Continuous
 62
     7
100
AcDbLine
 10
94.45179896115098
 20
202.9227577604646
 30
0.0
 11
93.95945105542471
 21
202.7836146276581
 31
0.0
1001
AC_800
1000
ELEMENT_19
1002
{
1071
     1361
1005
6534
1003
0
1011
-3.793536292658814
1021
-16.24093981692957
1031
0.0
1011
1.206463707341185
1021
-16.24093981692957
1031
0.0
1011
-3.793536292658814
1021
-11.24093981692957
1031
0.0
1002
}
  0
LINE
  5
6535
330
1F
100
AcDbEntity
  8
zintek
  6
Continuous
 62
     7
100
AcDbLine
 10
78.7143793733602
 20
107.558812657492
 30
0.0
 11
78.7143793733602
 21
104.1838126574917
 31
0.0
1001
AC_800
1000
ELEMENT_19
1002
{
1071
     1317
1005
6535
1003
0
1011
-4.093104888850689
1021
-27.96458517387001
1031
0.0
1011
0.9068951111493106
1021
-27.96458517387001
1031
0.0
1011
-4.093104888850689
1021
-22.96458517387001
1031
0.0
1002
}
  0
LINE
  5
6536
330
1F
100
AcDbEntity
  8
zintek
  6
Continuous
 62
     7
100
AcDbLine
 10
78.84937937336014
 20
107.4238126574921
 30
0.0
 11
78.84937937336014
 21
107.2888126574918
 31
0.0
1001
AC_800
1000
ELEMENT_19
1002
{
1071
     1316
1005
6536
1003
0
1011
-4.093104888850689
1021
-27.96458517387001
1031
0.0
1011
0.9068951111493106
1021
-27.96458517387001
1031
0.0
1011
-4.093104888850689
1021
-22.96458517387001
1031
0.0
1002
}
  0
LINE
  5
6537
330
1F
100
AcDbEntity
  8
zintek
  6
Continuous
 62
     7
100
AcDbLine
 10
80.19937937336022
 20
107.288812657492
 30
0.0
 11
80.19937937336022
 21
107.4238126574919
 31
0.0
1001
AC_800
1000
ELEMENT_19
1002
{
1071
     1315
1005
6537
1003
0
1011
-4.093104888850689
1021
-27.96458517387001
1031
0.0
1011
0.9068951111493106
1021
-27.96458517387001
1031
0.0
1011
-4.093104888850689
1021
-22.96458517387001
1031
0.0
1002
}
  0
LINE
  5
6538
330
1F
100
AcDbEntity
  8
zintek
  6
Continuous
 62
     7
100
AcDbLine
 10
78.84937937336014
 20
107.4238126574919
 30
0.0
 11
80.06437937336011
 21
107.4238126574919
 31
0.0
1001
AC_800
1000
ELEMENT_19
1002
{
1071
     1313
1005
6538
1003
0
1011
-4.093104888850689
1021
-27.96458517387001
1031
0.0
1011
0.9068951111493106
1021
-27.96458517387001
1031
0.0
1011
-4.093104888850689
1021
-22.96458517387001
1031
0.0
1002
}
  0
LINE
  5
6539
330
1F
100
AcDbEntity
  8
zintek
  6
Continuous
 62
     7
100
AcDbLine
 10
80.06437937336011
 20
107.4238126574919
 30
0.0
 11
78.84937937336014
 21
107.4238126574919
 31
0.0
1001
AC_800
1000
ELEMENT_19
1002
{
1071
     1312
1005
6539
1003
0
1011
-4.093104888850689
1021
-27.96458517387001
1031
0.0
1011
0.9068951111493106
1021
-27.96458517387001
1031
0.0
1011
-4.093104888850689
1021
-22.96458517387001
1031
0.0
1002
}
  0
LINE
  5
653A
330
1F
100
AcDbEntity
  8
zintek
  6
Continuous
 62
     7
100
AcDbLine
 10
79.17309256127021
 20
106.5190721665984
 30
0.0
 11
80.19937937336022
 21
106.5190721665984
 31
0.0
1001
AC_800
1000
ELEMENT_19
1002
{
1071
     1396
1005
653A
1003
0
1011
-4.093104888850689
1021
-27.96458517387001
1031
0.0
1011
0.9068951111493106
1021
-27.96458517387001
1031
0.0
1011
-4.093104888850689
1021
-22.96458517387001
1031
0.0
1002
}
  0
LINE
  5
653B
330
1F
100
AcDbEntity
  8
zintek
  6
Continuous
 62
     7
100
AcDbLine
 10
78.84937937336014
 20
103.7988126574915
 30
0.0
 11
78.84937937336014
 21
107.4238126574919
 31
0.0
1001
AC_800
1000
ELEMENT_19
1002
{
1071
     1306
1005
653B
1003
0
1011
-4.093104888850689
1021
-27.96458517387001
1031
0.0
1011
0.9068951111493106
1021
-27.96458517387001
1031
0.0
1011
-4.093104888850689
1021
-22.96458517387001
1031
0.0
1002
}
  0
LINE
  5
653C
330
1F
100
AcDbEntity
  8
zintek
  6
Continuous
 62
     7
100
AcDbLine
 10
80.19937937336022
 20
107.558812657492
 30
0.0
 11
78.7143793733602
 21
107.558812657492
 31
0.0
1001
AC_800
1000
ELEMENT_19
1002
{
1071
     1304
1005
653C
1003
0
1011
-4.093104888850689
1021
-27.96458517387001
1031
0.0
1011
0.9068951111493106
1021
-27.96458517387001
1031
0.0
1011
-4.093104888850689
1021
-22.96458517387001
1031
0.0
1002
}
  0
LINE
  5
653D
330
1F
100
AcDbEntity
  8
zintek
  6
Continuous
 62
     7
100
AcDbLine
 10
133.7392289738832
 20
104.1838126574915
 30
0.0
 11
133.7392289738832
 21
103.7988056072516
 31
0.0
1001
AC_800
1000
ELEMENT_19
1002
{
1071
      993
1005
653D
1003
0
1011
-4.093104888850689
1021
-27.96458517387001
1031
0.0
1011
0.9068951111493106
1021
-27.96458517387001
1031
0.0
1011
-4.093104888850689
1021
-22.96458517387001
1031
0.0
1002
}
  0
LINE
  5
653E
330
1F
100
AcDbEntity
  8
zintek
  6
Continuous
 62
     7
100
AcDbLine
 10
51.17453465372841
 20
103.7988056072516
 30
0.0
 11
51.17453465372841
 21
104.1838126574917
 31
0.0
1001
AC_800
1000
ELEMENT_19
1002
{
1071
     1003
1005
653E
1003
0
1011
-4.093104888850689
1021
-27.96458517387001
1031
0.0
1011
0.9068951111493106
1021
-27.96458517387001
1031
0.0
1011
-4.093104888850689
1021
-22.96458517387001
1031
0.0
1002
}
  0
LINE
  5
653F
330
1F
100
AcDbEntity
  8
zintek
  6
Continuous
 62
   120
100
AcDbLine
 10
85.52132907909401
 20
181.9758517603878
 30
0.0
 11
85.45564210032756
 21
186.1695078470845
 31
0.0
1001
AC_800
1000
ELEMENT_19
1002
{
1071
     1646
1005
653F
1003
0
1011
-3.793536292658814
1021
-16.24093981692957
1031
0.0
1011
1.206463707341185
1021
-16.24093981692957
1031
0.0
1011
-3.793536292658814
1021
-11.24093981692957
1031
0.0
1002
}
  0
LINE
  5
6540
330
1F
100
AcDbEntity
  8
zintek
  6
Continuous
 62
     7
100
AcDbLine
 10
93.68973379112821
 20
203.2395391297489
 30
0.0
 11
93.65504650847702
 21
201.1804497840908
 31
0.0
1001
AC_800
1000
ELEMENT_19
1002
{
1071
      971
1005
6540
1003
0
1011
-3.793536292658814
1021
-16.24093981692957
1031
0.0
1011
1.206463707341185
1021
-16.24093981692957
1031
0.0
1011
-3.793536292658814
1021
-11.24093981692957
1031
0.0
1002
}
  0
LINE
  5
6541
330
1F
100
AcDbEntity
  8
zintek
  6
Continuous
 62
     7
100
AcDbLine
 10
80.19937937336022
 20
107.5588126574921
 30
0.0
 11
80.19937937336022
 21
106.5190721665984
 31
0.0
1001
AC_800
1000
ELEMENT_19
1002
{
1071
     1309
1005
6541
1003
0
1011
-4.093104888850689
1021
-27.96458517387001
1031
0.0
1011
0.9068951111493106
1021
-27.96458517387001
1031
0.0
1011
-4.093104888850689
1021
-22.96458517387001
1031
0.0
1002
}
  0
LINE
  5
6542
330
1F
100
AcDbEntity
  8
zintek
  6
Continuous
 62
     7
100
AcDbLine
 10
120.5006106437965
 20
106.9706411996633
 30
0.0
 11
119.5518793733591
 21
106.9706411996633
 31
0.0
1001
AC_800
1000
ELEMENT_19
1002
{
1071
     1403
1005
6542
1003
0
1011
-4.093104888850689
1021
-27.96458517387001
1031
0.0
1011
0.9068951111493106
1021
-27.96458517387001
1031
0.0
1011
-4.093104888850689
1021
-22.96458517387001
1031
0.0
1002
}
  0
LINE
  5
6543
330
1F
100
AcDbEntity
  8
zintek
  6
Continuous
 62
     7
100
AcDbLine
 10
93.61378319198797
 20
203.3003032597345
 30
0.0
 11
93.57929896397218
 21
201.2403994698493
 31
0.0
1001
AC_800
1000
ELEMENT_19
1002
{
1071
      972
1005
6543
1003
0
1011
-3.793536292658814
1021
-16.24093981692957
1031
0.0
1011
1.206463707341185
1021
-16.24093981692957
1031
0.0
1011
-3.793536292658814
1021
-11.24093981692957
1031
0.0
1002
}
  0
LINE
  5
6544
330
1F
100
AcDbEntity
  8
zintek
  6
Continuous
 62
     7
100
AcDbLine
 10
94.46284628364969
 20
203.5400773546845
 30
0.0
 11
93.61378319198797
 21
203.3003032597345
 31
0.0
1001
AC_800
1000
ELEMENT_19
1002
{
1071
      970
1005
6544
1003
0
1011
-3.793536292658814
1021
-16.24093981692957
1031
0.0
1011
1.206463707341185
1021
-16.24093981692957
1031
0.0
1011
-3.793536292658814
1021
-11.24093981692957
1031
0.0
1002
}
  0
LINE
  5
6545
330
1F
100
AcDbEntity
  8
zintek
  6
Continuous
 62
     7
100
AcDbLine
 10
39.55306680233741
 20
228.141836983756
 30
0.0
 11
72.64230848055627
 21
195.1304715307474
 31
0.0
1001
AC_800
1000
ELEMENT_19
1002
{
1071
     1614
1005
6545
1003
0
1011
-3.793536292658814
1021
-16.24093981692957
1031
0.0
1011
1.206463707341185
1021
-16.24093981692957
1031
0.0
1011
-3.793536292658814
1021
-11.24093981692957
1031
0.0
1002
}
  0
LINE
  5
6546
330
1F
100
AcDbEntity
  8
zintek
  6
Continuous
 62
     7
100
AcDbLine
 10
141.578223668144
 20
214.9784595232952
 30
0.0
 11
135.2595061007031
 21
213.15917850517
 31
0.0
1001
AC_800
1000
ELEMENT_19
1002
{
1071
      954
1005
6546
1003
0
1011
-3.793536292658814
1021
-16.24093981692957
1031
0.0
1011
1.206463707341185
1021
-16.24093981692957
1031
0.0
1011
-3.793536292658814
1021
-11.24093981692957
1031
0.0
1002
}
  0
LINE
  5
6547
330
1F
100
AcDbEntity
  8
zintek
  6
Continuous
 62
   120
100
AcDbLine
 10
147.0163839573465
 20
205.869172078565
 30
0.0
 11
144.0158456017696
 21
207.5403461930623
 31
0.0
1001
AC_800
1000
ELEMENT_19
1002
{
1071
      953
1005
6547
1003
0
1011
-3.793536292658814
1021
-16.24093981692957
1031
0.0
1011
1.206463707341185
1021
-16.24093981692957
1031
0.0
1011
-3.793536292658814
1021
-11.24093981692957
1031
0.0
1002
}
  0
LINE
  5
6548
330
1F
100
AcDbEntity
  8
zintek
  6
Continuous
 62
   120
100
AcDbLine
 10
146.3600768269893
 20
198.5308832362082
 30
0.0
 11
147.0163839573465
 21
205.869172078565
 31
0.0
1001
AC_800
1000
ELEMENT_19
1002
{
1071
      952
1005
6548
1003
0
1011
-3.793536292658814
1021
-16.24093981692957
1031
0.0
1011
1.206463707341185
1021
-16.24093981692957
1031
0.0
1011
-3.793536292658814
1021
-11.24093981692957
1031
0.0
1002
}
  0
LINE
  5
6549
330
1F
100
AcDbEntity
  8
zintek
  6
Continuous
 62
   120
100
AcDbLine
 10
69.95696314193543
 20
172.4479407051156
 30
0.0
 11
69.88597251906515
 21
176.8061898273135
 31
0.0
1001
AC_800
1000
ELEMENT_19
1002
{
1071
      951
1005
6549
1003
0
1011
-3.793536292658814
1021
-16.24093981692957
1031
0.0
1011
1.206463707341185
1021
-16.24093981692957
1031
0.0
1011
-3.793536292658814
1021
-11.24093981692957
1031
0.0
1002
}
  0
LINE
  5
654A
330
1F
100
AcDbEntity
  8
zintek
  6
Continuous
 62
   120
100
AcDbLine
 10
34.73579671533617
 20
215.6286454361142
 30
0.0
 11
34.33623117006169
 21
222.0015433173756
 31
0.0
1001
AC_800
1000
ELEMENT_19
1002
{
1071
      950
1005
654A
1003
0
1011
-3.793536292658814
1021
-16.24093981692957
1031
0.0
1011
1.206463707341185
1021
-16.24093981692957
1031
0.0
1011
-3.793536292658814
1021
-11.24093981692957
1031
0.0
1002
}
  0
LINE
  5
654B
330
1F
100
AcDbEntity
  8
zintek
  6
Continuous
 62
   120
100
AcDbLine
 10
69.81498189619492
 20
181.1644389495113
 30
0.0
 11
147.0163839573465
 21
205.869172078565
 31
0.0
1001
AC_800
1000
ELEMENT_19
1002
{
1071
      949
1005
654B
1003
0
1011
-3.793536292658814
1021
-16.24093981692957
1031
0.0
1011
1.206463707341185
1021
-16.24093981692957
1031
0.0
1011
-3.793536292658814
1021
-11.24093981692957
1031
0.0
1002
}
  0
LINE
  5
654C
330
1F
100
AcDbEntity
  8
zintek
  6
Continuous
 62
   120
100
AcDbLine
 10
34.33623117006169
 20
222.0015433173756
 30
0.0
 11
46.77978432032296
 21
207.6786410645072
 31
0.0
1001
AC_800
1000
ELEMENT_19
1002
{
1071
      948
1005
654C
1003
0
1011
-3.793536292658814
1021
-16.24093981692957
1031
0.0
1011
1.206463707341185
1021
-16.24093981692957
1031
0.0
1011
-3.793536292658814
1021
-11.24093981692957
1031
0.0
1002
}
  0
LINE
  5
654D
330
1F
100
AcDbEntity
  8
zintek
  6
Continuous
 62
   120
100
AcDbLine
 10
35.6866853790591
 20
222.2754514341079
 30
0.0
 11
34.33623117006169
 21
222.0015433173756
 31
0.0
1001
AC_800
1000
ELEMENT_19
1002
{
1071
      947
1005
654D
1003
0
1011
-3.793536292658814
1021
-16.24093981692957
1031
0.0
1011
1.206463707341185
1021
-16.24093981692957
1031
0.0
1011
-3.793536292658814
1021
-11.24093981692957
1031
0.0
1002
}
  0
LINE
  5
654E
330
1F
100
AcDbEntity
  8
zintek
  6
Continuous
 62
   120
100
AcDbLine
 10
69.95696314193543
 20
172.4479407051156
 30
0.0
 11
146.3600768269893
 21
198.5308832362083
 31
0.0
1001
AC_800
1000
ELEMENT_19
1002
{
1071
      946
1005
654E
1003
0
1011
-3.793536292658814
1021
-16.24093981692957
1031
0.0
1011
1.206463707341185
1021
-16.24093981692957
1031
0.0
1011
-3.793536292658814
1021
-11.24093981692957
1031
0.0
1002
}
  0
LINE
  5
654F
330
1F
100
AcDbEntity
  8
zintek
  6
Continuous
 62
   120
100
AcDbLine
 10
34.73579671533605
 20
215.6286454361149
 30
0.0
 11
46.8930672743179
 21
200.7239854375234
 31
0.0
1001
AC_800
1000
ELEMENT_19
1002
{
1071
      945
1005
654F
1003
0
1011
-3.793536292658814
1021
-16.24093981692957
1031
0.0
1011
1.206463707341185
1021
-16.24093981692957
1031
0.0
1011
-3.793536292658814
1021
-11.24093981692957
1031
0.0
1002
}
  0
LINE
  5
6550
330
1F
100
AcDbEntity
  8
zintek
  6
Continuous
 62
     7
100
AcDbLine
 10
141.4301206370638
 20
213.1505174711625
 30
0.0
 11
141.5782233580006
 21
214.9784556953894
 31
0.0
1001
AC_800
1000
ELEMENT_19
1002
{
1071
      944
1005
6550
1003
0
1011
-3.793536292658814
1021
-16.24093981692957
1031
0.0
1011
1.206463707341185
1021
-16.24093981692957
1031
0.0
1011
-3.793536292658814
1021
-11.24093981692957
1031
0.0
1002
}
  0
LINE
  5
6551
330
1F
100
AcDbEntity
  8
zintek
  6
Continuous
 62
     7
100
AcDbLine
 10
52.11533583622474
 20
211.417416256525
 30
0.0
 11
55.50206934924125
 21
212.2303707492978
 31
0.0
1001
AC_800
1000
ELEMENT_19
1002
{
1071
     1213
1005
6551
1003
0
1011
-3.793536292658814
1021
-16.24093981692957
1031
0.0
1011
1.206463707341185
1021
-16.24093981692957
1031
0.0
1011
-3.793536292658814
1021
-11.24093981692957
1031
0.0
1002
}
  0
LINE
  5
6552
330
1F
100
AcDbEntity
  8
zintek
  6
Continuous
 62
     7
100
AcDbLine
 10
64.79838842210006
 20
196.2699827919207
 30
0.0
 11
64.75501754070655
 21
198.1660489911498
 31
0.0
1001
AC_800
1000
ELEMENT_19
1002
{
1071
      938
1005
6552
1003
0
1011
-3.793536292658814
1021
-16.24093981692957
1031
0.0
1011
1.206463707341185
1021
-16.24093981692957
1031
0.0
1011
-3.793536292658814
1021
-11.24093981692957
1031
0.0
1002
}
  0
LINE
  5
6553
330
1F
100
AcDbEntity
  8
zintek
  6
Continuous
 62
     7
100
AcDbLine
 10
68.91123991565473
 20
191.8882320746424
 30
0.0
 11
141.4301206370638
 21
213.1505174711625
 31
0.0
1001
AC_800
1000
ELEMENT_19
1002
{
1071
      936
1005
6553
1003
0
1011
-3.793536292658814
1021
-16.24093981692957
1031
0.0
1011
1.206463707341185
1021
-16.24093981692957
1031
0.0
1011
-3.793536292658814
1021
-11.24093981692957
1031
0.0
1002
}
  0
LINE
  5
6554
330
1F
100
AcDbEntity
  8
zintek
  6
Continuous
 62
     7
100
AcDbLine
 10
64.79838842210006
 20
196.2699827919207
 30
0.0
 11
68.91123991565473
 21
191.8882320746424
 31
0.0
1001
AC_800
1000
ELEMENT_19
1002
{
1071
      935
1005
6554
1003
0
1011
-3.793536292658814
1021
-16.24093981692957
1031
0.0
1011
1.206463707341185
1021
-16.24093981692957
1031
0.0
1011
-3.793536292658814
1021
-11.24093981692957
1031
0.0
1002
}
  0
LINE
  5
6555
330
1F
100
AcDbEntity
  8
zintek
  6
Continuous
 62
     7
100
AcDbLine
 10
42.47989864017262
 20
221.5191514135163
 30
0.0
 11
40.03743064053117
 21
224.0798203649898
 31
0.0
1001
AC_800
1000
ELEMENT_19
1002
{
1071
      932
1005
6555
1003
0
1011
-3.793536292658814
1021
-16.24093981692957
1031
0.0
1011
1.206463707341185
1021
-16.24093981692957
1031
0.0
1011
-3.793536292658814
1021
-11.24093981692957
1031
0.0
1002
}
  0
LINE
  5
6556
330
1F
100
AcDbEntity
  8
zintek
  6
Continuous
 62
     7
100
AcDbLine
 10
42.56069757735622
 20
219.9615792335305
 30
0.0
 11
42.47989864017262
 21
221.5191514135163
 31
0.0
1001
AC_800
1000
ELEMENT_19
1002
{
1071
      930
1005
6556
1003
0
1011
-3.793536292658814
1021
-16.24093981692957
1031
0.0
1011
1.206463707341185
1021
-16.24093981692957
1031
0.0
1011
-3.793536292658814
1021
-11.24093981692957
1031
0.0
1002
}
  0
LINE
  5
6557
330
1F
100
AcDbEntity
  8
zintek
  6
Continuous
 62
     7
100
AcDbLine
 10
40.12088796686373
 20
222.5609041854649
 30
0.0
 11
40.03743064053117
 21
224.0798203649898
 31
0.0
1001
AC_800
1000
ELEMENT_19
1002
{
1071
      929
1005
6557
1003
0
1011
-3.793536292658814
1021
-16.24093981692957
1031
0.0
1011
1.206463707341185
1021
-16.24093981692957
1031
0.0
1011
-3.793536292658814
1021
-11.24093981692957
1031
0.0
1002
}
  0
LINE
  5
6558
330
1F
100
AcDbEntity
  8
zintek
  6
Continuous
 62
     7
100
AcDbLine
 10
42.56069757735622
 20
219.9615792335305
 30
0.0
 11
42.91435653604674
 21
220.0363104322315
 31
0.0
1001
AC_800
1000
ELEMENT_19
1002
{
1071
      928
1005
6558
1003
0
1011
-3.793536292658814
1021
-16.24093981692957
1031
0.0
1011
1.206463707341185
1021
-16.24093981692957
1031
0.0
1011
-3.793536292658814
1021
-11.24093981692957
1031
0.0
1002
}
  0
LINE
  5
6559
330
1F
100
AcDbEntity
  8
zintek
  6
Continuous
 62
     7
100
AcDbLine
 10
40.12088796686373
 20
222.5609041854649
 30
0.0
 11
42.56069757735622
 21
219.9615792335305
 31
0.0
1001
AC_800
1000
ELEMENT_19
1002
{
1071
      927
1005
6559
1003
0
1011
-3.793536292658814
1021
-16.24093981692957
1031
0.0
1011
1.206463707341185
1021
-16.24093981692957
1031
0.0
1011
-3.793536292658814
1021
-11.24093981692957
1031
0.0
1002
}
  0
LINE
  5
655A
330
1F
100
AcDbEntity
  8
zintek
  6
Continuous
 62
     7
100
AcDbLine
 10
45.46999195042952
 20
218.3843553372903
 30
0.0
 11
42.85854605613486
 21
221.122179710406
 31
0.0
1001
AC_800
1000
ELEMENT_19
1002
{
1071
      924
1005
655A
1003
0
1011
-3.793536292658814
1021
-16.24093981692957
1031
0.0
1011
1.206463707341185
1021
-16.24093981692957
1031
0.0
1011
-3.793536292658814
1021
-11.24093981692957
1031
0.0
1002
}
  0
LINE
  5
655B
330
1F
100
AcDbEntity
  8
zintek
  6
Continuous
 62
     7
100
AcDbLine
 10
45.54714732396269
 20
216.7798746813928
 30
0.0
 11
45.46999195042952
 21
218.3843553372903
 31
0.0
1001
AC_800
1000
ELEMENT_19
1002
{
1071
      922
1005
655B
1003
0
1011
-3.793536292658814
1021
-16.24093981692957
1031
0.0
1011
1.206463707341185
1021
-16.24093981692957
1031
0.0
1011
-3.793536292658814
1021
-11.24093981692957
1031
0.0
1002
}
  0
LINE
  5
655C
330
1F
100
AcDbEntity
  8
zintek
  6
Continuous
 62
     7
100
AcDbLine
 10
42.93890728082589
 20
219.5586420883266
 30
0.0
 11
42.85854605613486
 21
221.122179710406
 31
0.0
1001
AC_800
1000
ELEMENT_19
1002
{
1071
      921
1005
655C
1003
0
1011
-3.793536292658814
1021
-16.24093981692957
1031
0.0
1011
1.206463707341185
1021
-16.24093981692957
1031
0.0
1011
-3.793536292658814
1021
-11.24093981692957
1031
0.0
1002
}
  0
LINE
  5
655D
330
1F
100
AcDbEntity
  8
zintek
  6
Continuous
 62
     7
100
AcDbLine
 10
45.54714732396269
 20
216.7798746813928
 30
0.0
 11
45.92742300851784
 21
216.8635695731907
 31
0.0
1001
AC_800
1000
ELEMENT_19
1002
{
1071
      920
1005
655D
1003
0
1011
-3.793536292658814
1021
-16.24093981692957
1031
0.0
1011
1.206463707341185
1021
-16.24093981692957
1031
0.0
1011
-3.793536292658814
1021
-11.24093981692957
1031
0.0
1002
}
  0
LINE
  5
655E
330
1F
100
AcDbEntity
  8
zintek
  6
Continuous
 62
     7
100
AcDbLine
 10
42.93890728082589
 20
219.5586420883266
 30
0.0
 11
45.54714732396269
 21
216.7798746813928
 31
0.0
1001
AC_800
1000
ELEMENT_19
1002
{
1071
      919
1005
655E
1003
0
1011
-3.793536292658814
1021
-16.24093981692957
1031
0.0
1011
1.206463707341185
1021
-16.24093981692957
1031
0.0
1011
-3.793536292658814
1021
-11.24093981692957
1031
0.0
1002
}
  0
LINE
  5
655F
330
1F
100
AcDbEntity
  8
zintek
  6
Continuous
 62
     7
100
AcDbLine
 10
59.82513089124814
 20
203.3345128888981
 30
0.0
 11
63.52798096984009
 21
204.2233482802535
 31
0.0
1001
AC_800
1000
ELEMENT_19
1002
{
1071
     1619
1005
655F
1003
0
1011
-3.793536292658814
1021
-16.24093981692957
1031
0.0
1011
1.206463707341185
1021
-16.24093981692957
1031
0.0
1011
-3.793536292658814
1021
-11.24093981692957
1031
0.0
1002
}
  0
LINE
  5
6560
330
1F
100
AcDbEntity
  8
zintek
  6
Continuous
 62
     7
100
AcDbLine
 10
48.67387785740596
 20
215.0254203718116
 30
0.0
 11
45.87529055751651
 21
217.9594426836155
 31
0.0
1001
AC_800
1000
ELEMENT_19
1002
{
1071
      916
1005
6560
1003
0
1011
-3.793536292658814
1021
-16.24093981692957
1031
0.0
1011
1.206463707341185
1021
-16.24093981692957
1031
0.0
1011
-3.793536292658814
1021
-11.24093981692957
1031
0.0
1002
}
  0
LINE
  5
6561
330
1F
100
AcDbEntity
  8
zintek
  6
Continuous
 62
     7
100
AcDbLine
 10
48.74665384831894
 20
213.3711836479323
 30
0.0
 11
48.67387785740596
 21
215.0254203718116
 31
0.0
1001
AC_800
1000
ELEMENT_19
1002
{
1071
      914
1005
6561
1003
0
1011
-3.793536292658814
1021
-16.24093981692957
1031
0.0
1011
1.206463707341185
1021
-16.24093981692957
1031
0.0
1011
-3.793536292658814
1021
-11.24093981692957
1031
0.0
1002
}
  0
LINE
  5
6562
330
1F
100
AcDbEntity
  8
zintek
  6
Continuous
 62
     7
100
AcDbLine
 10
45.95191909406913
 20
216.348638835222
 30
0.0
 11
45.87529055751651
 21
217.9594426836155
 31
0.0
1001
AC_800
1000
ELEMENT_19
1002
{
1071
      913
1005
6562
1003
0
1011
-3.793536292658814
1021
-16.24093981692957
1031
0.0
1011
1.206463707341185
1021
-16.24093981692957
1031
0.0
1011
-3.793536292658814
1021
-11.24093981692957
1031
0.0
1002
}
  0
LINE
  5
6563
330
1F
100
AcDbEntity
  8
zintek
  6
Continuous
 62
     7
100
AcDbLine
 10
48.74665384831894
 20
213.3711836479323
 30
0.0
 11
49.1567033756275
 21
213.4653445251762
 31
0.0
1001
AC_800
1000
ELEMENT_19
1002
{
1071
      912
1005
6563
1003
0
1011
-3.793536292658814
1021
-16.24093981692957
1031
0.0
1011
1.206463707341185
1021
-16.24093981692957
1031
0.0
1011
-3.793536292658814
1021
-11.24093981692957
1031
0.0
1002
}
  0
LINE
  5
6564
330
1F
100
AcDbEntity
  8
zintek
  6
Continuous
 62
     7
100
AcDbLine
 10
45.95191909406913
 20
216.348638835222
 30
0.0
 11
48.74665384831894
 21
213.3711836479323
 31
0.0
1001
AC_800
1000
ELEMENT_19
1002
{
1071
      911
1005
6564
1003
0
1011
-3.793536292658814
1021
-16.24093981692957
1031
0.0
1011
1.206463707341185
1021
-16.24093981692957
1031
0.0
1011
-3.793536292658814
1021
-11.24093981692957
1031
0.0
1002
}
  0
LINE
  5
6565
330
1F
100
AcDbEntity
  8
zintek
  6
Continuous
 62
     7
100
AcDbLine
 10
52.11533583622474
 20
211.417416256525
 30
0.0
 11
49.1087437504516
 21
214.5695095510598
 31
0.0
1001
AC_800
1000
ELEMENT_19
1002
{
1071
      908
1005
6565
1003
0
1011
-3.793536292658814
1021
-16.24093981692957
1031
0.0
1011
1.206463707341185
1021
-16.24093981692957
1031
0.0
1011
-3.793536292658814
1021
-11.24093981692957
1031
0.0
1002
}
  0
LINE
  5
6566
330
1F
100
AcDbEntity
  8
zintek
  6
Continuous
 62
     7
100
AcDbLine
 10
52.18286008276897
 20
209.7103174201794
 30
0.0
 11
52.11533583622474
 21
211.417416256525
 31
0.0
1001
AC_800
1000
ELEMENT_19
1002
{
1071
      906
1005
6566
1003
0
1011
-3.793536292658814
1021
-16.24093981692957
1031
0.0
1011
1.206463707341185
1021
-16.24093981692957
1031
0.0
1011
-3.793536292658814
1021
-11.24093981692957
1031
0.0
1002
}
  0
LINE
  5
6567
330
1F
100
AcDbEntity
  8
zintek
  6
Continuous
 62
     7
100
AcDbLine
 10
49.1808874310899
 20
212.9085597686712
 30
0.0
 11
49.1087437504516
 21
214.5695095510598
 31
0.0
1001
AC_800
1000
ELEMENT_19
1002
{
1071
      905
1005
6567
1003
0
1011
-3.793536292658814
1021
-16.24093981692957
1031
0.0
1011
1.206463707341185
1021
-16.24093981692957
1031
0.0
1011
-3.793536292658814
1021
-11.24093981692957
1031
0.0
1002
}
  0
LINE
  5
6568
330
1F
100
AcDbEntity
  8
zintek
  6
Continuous
 62
     7
100
AcDbLine
 10
52.18286008276897
 20
209.7103174201794
 30
0.0
 11
52.62636735441322
 21
209.8167772959491
 31
0.0
1001
AC_800
1000
ELEMENT_19
1002
{
1071
      904
1005
6568
1003
0
1011
-3.793536292658814
1021
-16.24093981692957
1031
0.0
1011
1.206463707341185
1021
-16.24093981692957
1031
0.0
1011
-3.793536292658814
1021
-11.24093981692957
1031
0.0
1002
}
  0
LINE
  5
6569
330
1F
100
AcDbEntity
  8
zintek
  6
Continuous
 62
     7
100
AcDbLine
 10
49.1808874310899
 20
212.9085597686712
 30
0.0
 11
52.18286008276897
 21
209.7103174201794
 31
0.0
1001
AC_800
1000
ELEMENT_19
1002
{
1071
      903
1005
6569
1003
0
1011
-3.793536292658814
1021
-16.24093981692957
1031
0.0
1011
1.206463707341185
1021
-16.24093981692957
1031
0.0
1011
-3.793536292658814
1021
-11.24093981692957
1031
0.0
1002
}
  0
LINE
  5
656A
330
1F
100
AcDbEntity
  8
zintek
  6
Continuous
 62
     7
100
AcDbLine
 10
56.32640918895197
 20
207.0025519519407
 30
0.0
 11
59.562384393164
 21
208.1796117421032
 31
0.0
1001
AC_800
1000
ELEMENT_19
1002
{
1071
      891
1005
656A
1003
0
1011
-3.793536292658814
1021
-16.24093981692957
1031
0.0
1011
1.206463707341185
1021
-16.24093981692957
1031
0.0
1011
-3.793536292658814
1021
-11.24093981692957
1031
0.0
1002
}
  0
LINE
  5
656B
330
1F
100
AcDbEntity
  8
zintek
  6
Continuous
 62
     7
100
AcDbLine
 10
55.82180769996091
 20
207.5315731575068
 30
0.0
 11
52.58312658939326
 21
210.9269872078739
 31
0.0
1001
AC_800
1000
ELEMENT_19
1002
{
1071
      900
1005
656B
1003
0
1011
-3.793536292658814
1021
-16.24093981692957
1031
0.0
1011
1.206463707341185
1021
-16.24093981692957
1031
0.0
1011
-3.793536292658814
1021
-11.24093981692957
1031
0.0
1002
}
  0
LINE
  5
656C
330
1F
100
AcDbEntity
  8
zintek
  6
Continuous
 62
     7
100
AcDbLine
 10
55.88304154042595
 20
205.7682172053875
 30
0.0
 11
55.82180769996091
 21
207.5315731575068
 31
0.0
1001
AC_800
1000
ELEMENT_19
1002
{
1071
      898
1005
656C
1003
0
1011
-3.793536292658814
1021
-16.24093981692957
1031
0.0
1011
1.206463707341185
1021
-16.24093981692957
1031
0.0
1011
-3.793536292658814
1021
-11.24093981692957
1031
0.0
1002
}
  0
LINE
  5
656D
330
1F
100
AcDbEntity
  8
zintek
  6
Continuous
 62
     7
100
AcDbLine
 10
52.64989319457192
 20
209.2127495707584
 30
0.0
 11
52.58312658939326
 21
210.9269872078739
 31
0.0
1001
AC_800
1000
ELEMENT_19
1002
{
1071
      897
1005
656D
1003
0
1011
-3.793536292658814
1021
-16.24093981692957
1031
0.0
1011
1.206463707341185
1021
-16.24093981692957
1031
0.0
1011
-3.793536292658814
1021
-11.24093981692957
1031
0.0
1002
}
  0
LINE
  5
656E
330
1F
100
AcDbEntity
  8
zintek
  6
Continuous
 62
     7
100
AcDbLine
 10
55.88304154042595
 20
205.7682172053875
 30
0.0
 11
56.36433369844161
 21
205.8892319000838
 31
0.0
1001
AC_800
1000
ELEMENT_19
1002
{
1071
      896
1005
656E
1003
0
1011
-3.793536292658814
1021
-16.24093981692957
1031
0.0
1011
1.206463707341185
1021
-16.24093981692957
1031
0.0
1011
-3.793536292658814
1021
-11.24093981692957
1031
0.0
1002
}
  0
LINE
  5
656F
330
1F
100
AcDbEntity
  8
zintek
  6
Continuous
 62
     7
100
AcDbLine
 10
52.64989319457192
 20
209.2127495707584
 30
0.0
 11
55.88304154042595
 21
205.7682172053875
 31
0.0
1001
AC_800
1000
ELEMENT_19
1002
{
1071
      895
1005
656F
1003
0
1011
-3.793536292658814
1021
-16.24093981692957
1031
0.0
1011
1.206463707341185
1021
-16.24093981692957
1031
0.0
1011
-3.793536292658814
1021
-11.24093981692957
1031
0.0
1002
}
  0
LINE
  5
6570
330
1F
100
AcDbEntity
  8
zintek
  6
Continuous
 62
     7
100
AcDbLine
 10
59.04420739336353
 20
208.6965692014522
 30
0.0
 11
55.82180769996091
 21
207.5315731575068
 31
0.0
1001
AC_800
1000
ELEMENT_19
1002
{
1071
      901
1005
6570
1003
0
1011
-3.793536292658814
1021
-16.24093981692957
1031
0.0
1011
1.206463707341185
1021
-16.24093981692957
1031
0.0
1011
-3.793536292658814
1021
-11.24093981692957
1031
0.0
1002
}
  0
LINE
  5
6571
330
1F
100
AcDbEntity
  8
zintek
  6
Continuous
 62
     7
100
AcDbLine
 10
59.82513089124814
 20
203.3345128888981
 30
0.0
 11
56.32640918895197
 21
207.0025519519407
 31
0.0
1001
AC_800
1000
ELEMENT_19
1002
{
1071
      892
1005
6571
1003
0
1011
-3.793536292658814
1021
-16.24093981692957
1031
0.0
1011
1.206463707341185
1021
-16.24093981692957
1031
0.0
1011
-3.793536292658814
1021
-11.24093981692957
1031
0.0
1002
}
  0
LINE
  5
6572
330
1F
100
AcDbEntity
  8
zintek
  6
Continuous
 62
     7
100
AcDbLine
 10
59.87883183565776
 20
201.5111811758438
 30
0.0
 11
59.82513089124814
 21
203.3345128888981
 31
0.0
1001
AC_800
1000
ELEMENT_19
1002
{
1071
      890
1005
6572
1003
0
1011
-3.793536292658814
1021
-16.24093981692957
1031
0.0
1011
1.206463707341185
1021
-16.24093981692957
1031
0.0
1011
-3.793536292658814
1021
-11.24093981692957
1031
0.0
1002
}
  0
LINE
  5
6573
330
1F
100
AcDbEntity
  8
zintek
  6
Continuous
 62
     7
100
AcDbLine
 10
56.38673578933413
 20
205.2315913048655
 30
0.0
 11
56.32640918895197
 21
207.0025519519407
 31
0.0
1001
AC_800
1000
ELEMENT_19
1002
{
1071
      889
1005
6573
1003
0
1011
-3.793536292658814
1021
-16.24093981692957
1031
0.0
1011
1.206463707341185
1021
-16.24093981692957
1031
0.0
1011
-3.793536292658814
1021
-11.24093981692957
1031
0.0
1002
}
  0
LINE
  5
6574
330
1F
100
AcDbEntity
  8
zintek
  6
Continuous
 62
     7
100
AcDbLine
 10
59.87883183565776
 20
201.5111811758438
 30
0.0
 11
60.40302862988489
 21
201.6495530405117
 31
0.0
1001
AC_800
1000
ELEMENT_19
1002
{
1071
      888
1005
6574
1003
0
1011
-3.793536292658814
1021
-16.24093981692957
1031
0.0
1011
1.206463707341185
1021
-16.24093981692957
1031
0.0
1011
-3.793536292658814
1021
-11.24093981692957
1031
0.0
1002
}
  0
LINE
  5
6575
330
1F
100
AcDbEntity
  8
zintek
  6
Continuous
 62
     7
100
AcDbLine
 10
56.38673578933413
 20
205.2315913048655
 30
0.0
 11
59.87883183565776
 21
201.5111811758438
 31
0.0
1001
AC_800
1000
ELEMENT_19
1002
{
1071
      887
1005
6575
1003
0
1011
-3.793536292658814
1021
-16.24093981692957
1031
0.0
1011
1.206463707341185
1021
-16.24093981692957
1031
0.0
1011
-3.793536292658814
1021
-11.24093981692957
1031
0.0
1002
}
  0
LINE
  5
6576
330
1F
100
AcDbEntity
  8
zintek
  6
Continuous
 62
     7
100
AcDbLine
 10
52.58312658939326
 20
210.9269872078739
 30
0.0
 11
55.9890404314898
 21
211.7445457637184
 31
0.0
1001
AC_800
1000
ELEMENT_19
1002
{
1071
     1214
1005
6576
1003
0
1011
-3.793536292658814
1021
-16.24093981692957
1031
0.0
1011
1.206463707341185
1021
-16.24093981692957
1031
0.0
1011
-3.793536292658814
1021
-11.24093981692957
1031
0.0
1002
}
  0
LINE
  5
6577
330
1F
100
AcDbEntity
  8
zintek
  6
Continuous
 62
     7
100
AcDbLine
 10
64.1624553116265
 20
198.7872877144592
 30
0.0
 11
60.37106544103926
 21
202.7621583477571
 31
0.0
1001
AC_800
1000
ELEMENT_19
1002
{
1071
      884
1005
6577
1003
0
1011
-3.793536292658814
1021
-16.24093981692957
1031
0.0
1011
1.206463707341185
1021
-16.24093981692957
1031
0.0
1011
-3.793536292658814
1021
-11.24093981692957
1031
0.0
1002
}
  0
LINE
  5
6578
330
1F
100
AcDbEntity
  8
zintek
  6
Continuous
 62
     7
100
AcDbLine
 10
64.20712932577351
 20
196.8998985507284
 30
0.0
 11
64.1624553116265
 21
198.7872877144592
 31
0.0
1001
AC_800
1000
ELEMENT_19
1002
{
1071
      882
1005
6578
1003
0
1011
-3.793536292658814
1021
-16.24093981692957
1031
0.0
1011
1.206463707341185
1021
-16.24093981692957
1031
0.0
1011
-3.793536292658814
1021
-11.24093981692957
1031
0.0
1002
}
  0
LINE
  5
6579
330
1F
100
AcDbEntity
  8
zintek
  6
Continuous
 62
     7
100
AcDbLine
 10
60.42367969335339
 20
200.9307110336549
 30
0.0
 11
60.37106544103926
 21
202.7621583477571
 31
0.0
1001
AC_800
1000
ELEMENT_19
1002
{
1071
      881
1005
6579
1003
0
1011
-3.793536292658814
1021
-16.24093981692957
1031
0.0
1011
1.206463707341185
1021
-16.24093981692957
1031
0.0
1011
-3.793536292658814
1021
-11.24093981692957
1031
0.0
1002
}
  0
LINE
  5
657A
330
1F
100
AcDbEntity
  8
zintek
  6
Continuous
 62
     7
100
AcDbLine
 10
64.20712932577351
 20
196.8998985507284
 30
0.0
 11
64.78033701591448
 21
197.0591450136107
 31
0.0
1001
AC_800
1000
ELEMENT_19
1002
{
1071
      880
1005
657A
1003
0
1011
-3.793536292658814
1021
-16.24093981692957
1031
0.0
1011
1.206463707341185
1021
-16.24093981692957
1031
0.0
1011
-3.793536292658814
1021
-11.24093981692957
1031
0.0
1002
}
  0
LINE
  5
657B
330
1F
100
AcDbEntity
  8
zintek
  6
Continuous
 62
     7
100
AcDbLine
 10
60.42367969335339
 20
200.9307110336549
 30
0.0
 11
64.20712932577351
 21
196.8998985507284
 31
0.0
1001
AC_800
1000
ELEMENT_19
1002
{
1071
      879
1005
657B
1003
0
1011
-3.793536292658814
1021
-16.24093981692957
1031
0.0
1011
1.206463707341185
1021
-16.24093981692957
1031
0.0
1011
-3.793536292658814
1021
-11.24093981692957
1031
0.0
1002
}
  0
LINE
  5
657C
330
1F
100
AcDbEntity
  8
zintek
  6
Continuous
 62
     7
100
AcDbLine
 10
46.78551320240109
 20
195.8597297061073
 30
0.0
 11
48.34540657171817
 21
196.2794029365901
 31
0.0
1001
AC_800
1000
ELEMENT_19
1002
{
1071
      878
1005
657C
1003
0
1011
-3.793536292658814
1021
-16.24093981692957
1031
0.0
1011
1.206463707341185
1021
-16.24093981692957
1031
0.0
1011
-3.793536292658814
1021
-11.24093981692957
1031
0.0
1002
}
  0
LINE
  5
657D
330
1F
100
AcDbEntity
  8
zintek
  6
Continuous
 62
     7
100
AcDbLine
 10
43.94795792508211
 20
199.4944376332508
 30
0.0
 11
46.78551320240109
 21
195.8597297061073
 31
0.0
1001
AC_800
1000
ELEMENT_19
1002
{
1071
      877
1005
657D
1003
0
1011
-3.793536292658814
1021
-16.24093981692957
1031
0.0
1011
1.206463707341185
1021
-16.24093981692957
1031
0.0
1011
-3.793536292658814
1021
-11.24093981692957
1031
0.0
1002
}
  0
LINE
  5
657E
330
1F
100
AcDbEntity
  8
zintek
  6
Continuous
 62
     7
100
AcDbLine
 10
45.46925126794599
 20
199.8883724530307
 30
0.0
 11
43.94795792508211
 21
199.4944376332508
 31
0.0
1001
AC_800
1000
ELEMENT_19
1002
{
1071
      876
1005
657E
1003
0
1011
-3.793536292658814
1021
-16.24093981692957
1031
0.0
1011
1.206463707341185
1021
-16.24093981692957
1031
0.0
1011
-3.793536292658814
1021
-11.24093981692957
1031
0.0
1002
}
  0
LINE
  5
657F
330
1F
100
AcDbEntity
  8
zintek
  6
Continuous
 62
     7
100
AcDbLine
 10
44.04012559335206
 20
197.7022528749169
 30
0.0
 11
46.8734285602452
 21
194.0192061750227
 31
0.0
1001
AC_800
1000
ELEMENT_19
1002
{
1071
      875
1005
657F
1003
0
1011
-3.793536292658814
1021
-16.24093981692957
1031
0.0
1011
1.206463707341185
1021
-16.24093981692957
1031
0.0
1011
-3.793536292658814
1021
-11.24093981692957
1031
0.0
1002
}
  0
LINE
  5
6580
330
1F
100
AcDbEntity
  8
zintek
  6
Continuous
 62
     7
100
AcDbLine
 10
41.28213260312555
 20
202.9091716148385
 30
0.0
 11
42.76657268388766
 21
203.2796652006131
 31
0.0
1001
AC_800
1000
ELEMENT_19
1002
{
1071
      874
1005
6580
1003
0
1011
-3.793536292658814
1021
-16.24093981692957
1031
0.0
1011
1.206463707341185
1021
-16.24093981692957
1031
0.0
1011
-3.793536292658814
1021
-11.24093981692957
1031
0.0
1002
}
  0
LINE
  5
6581
330
1F
100
AcDbEntity
  8
zintek
  6
Continuous
 62
     7
100
AcDbLine
 10
38.77290538325883
 20
206.1233144863285
 30
0.0
 11
41.28213260312555
 21
202.9091716148385
 31
0.0
1001
AC_800
1000
ELEMENT_19
1002
{
1071
      873
1005
6581
1003
0
1011
-3.793536292658814
1021
-16.24093981692957
1031
0.0
1011
1.206463707341185
1021
-16.24093981692957
1031
0.0
1011
-3.793536292658814
1021
-11.24093981692957
1031
0.0
1002
}
  0
LINE
  5
6582
330
1F
100
AcDbEntity
  8
zintek
  6
Continuous
 62
     7
100
AcDbLine
 10
40.22213528848857
 20
206.4723985639482
 30
0.0
 11
38.77290538325883
 21
206.1233144863285
 31
0.0
1001
AC_800
1000
ELEMENT_19
1002
{
1071
      872
1005
6582
1003
0
1011
-3.793536292658814
1021
-16.24093981692957
1031
0.0
1011
1.206463707341185
1021
-16.24093981692957
1031
0.0
1011
-3.793536292658814
1021
-11.24093981692957
1031
0.0
1002
}
  0
LINE
  5
6583
330
1F
100
AcDbEntity
  8
zintek
  6
Continuous
 62
     7
100
AcDbLine
 10
38.87167057047282
 20
204.4207935456459
 30
0.0
 11
41.37788564248075
 21
201.162932576296
 31
0.0
1001
AC_800
1000
ELEMENT_19
1002
{
1071
      871
1005
6583
1003
0
1011
-3.793536292658814
1021
-16.24093981692957
1031
0.0
1011
1.206463707341185
1021
-16.24093981692957
1031
0.0
1011
-3.793536292658814
1021
-11.24093981692957
1031
0.0
1002
}
  0
LINE
  5
6584
330
1F
100
AcDbEntity
  8
zintek
  6
Continuous
 62
     7
100
AcDbLine
 10
38.77290538325883
 20
206.1233144863285
 30
0.0
 11
40.22213528848857
 21
206.4723985639482
 31
0.0
1001
AC_800
1000
ELEMENT_19
1002
{
1071
      870
1005
6584
1003
0
1011
-3.793536292658814
1021
-16.24093981692957
1031
0.0
1011
1.206463707341185
1021
-16.24093981692957
1031
0.0
1011
-3.793536292658814
1021
-11.24093981692957
1031
0.0
1002
}
  0
LINE
  5
6585
330
1F
100
AcDbEntity
  8
zintek
  6
Continuous
 62
     7
100
AcDbLine
 10
36.40687146184808
 20
209.1540368545522
 30
0.0
 11
38.77290538325883
 21
206.1233144863285
 31
0.0
1001
AC_800
1000
ELEMENT_19
1002
{
1071
      869
1005
6585
1003
0
1011
-3.793536292658814
1021
-16.24093981692957
1031
0.0
1011
1.206463707341185
1021
-16.24093981692957
1031
0.0
1011
-3.793536292658814
1021
-11.24093981692957
1031
0.0
1002
}
  0
LINE
  5
6586
330
1F
100
AcDbEntity
  8
zintek
  6
Continuous
 62
     7
100
AcDbLine
 10
37.82243688109594
 20
209.4835149628341
 30
0.0
 11
36.40687146184808
 21
209.1540368545522
 31
0.0
1001
AC_800
1000
ELEMENT_19
1002
{
1071
      868
1005
6586
1003
0
1011
-3.793536292658814
1021
-16.24093981692957
1031
0.0
1011
1.206463707341185
1021
-16.24093981692957
1031
0.0
1011
-3.793536292658814
1021
-11.24093981692957
1031
0.0
1002
}
  0
LINE
  5
6587
330
1F
100
AcDbEntity
  8
zintek
  6
Continuous
 62
     7
100
AcDbLine
 10
36.50815472733859
 20
207.493157965519
 30
0.0
 11
38.87167057047282
 21
204.4207935456459
 31
0.0
1001
AC_800
1000
ELEMENT_19
1002
{
1071
      867
1005
6587
1003
0
1011
-3.793536292658814
1021
-16.24093981692957
1031
0.0
1011
1.206463707341185
1021
-16.24093981692957
1031
0.0
1011
-3.793536292658814
1021
-11.24093981692957
1031
0.0
1002
}
  0
LINE
  5
6588
330
1F
100
AcDbEntity
  8
zintek
  6
Continuous
 62
     7
100
AcDbLine
 10
155.7984314505382
 20
192.490966209754
 30
0.0
 11
152.5389719757803
 21
194.4446997652979
 31
0.0
1001
AC_800
1000
ELEMENT_19
1002
{
1071
      866
1005
6588
1003
0
1011
-3.793536292658814
1021
-16.24093981692957
1031
0.0
1011
1.206463707341185
1021
-16.24093981692957
1031
0.0
1011
-3.793536292658814
1021
-11.24093981692957
1031
0.0
1002
}
  0
LINE
  5
6589
330
1F
100
AcDbEntity
  8
zintek
  6
Continuous
 62
     7
100
AcDbLine
 10
155.6037636712432
 20
190.606162475623
 30
0.0
 11
155.7984314505382
 21
192.490966209754
 31
0.0
1001
AC_800
1000
ELEMENT_19
1002
{
1071
      865
1005
6589
1003
0
1011
-3.793536292658814
1021
-16.24093981692957
1031
0.0
1011
1.206463707341185
1021
-16.24093981692957
1031
0.0
1011
-3.793536292658814
1021
-11.24093981692957
1031
0.0
1002
}
  0
LINE
  5
658A
330
1F
100
AcDbEntity
  8
zintek
  6
Continuous
 62
     7
100
AcDbLine
 10
73.28310676584243
 20
159.6889282990004
 30
0.0
 11
73.25650060579085
 21
161.9522641763715
 31
0.0
1001
AC_800
1000
ELEMENT_19
1002
{
1071
      864
1005
658A
1003
0
1011
-3.793536292658814
1021
-16.24093981692957
1031
0.0
1011
1.206463707341185
1021
-16.24093981692957
1031
0.0
1011
-3.793536292658814
1021
-11.24093981692957
1031
0.0
1002
}
  0
LINE
  5
658B
330
1F
100
AcDbEntity
  8
zintek
  6
Continuous
 62
     7
100
AcDbLine
 10
73.25650060579085
 20
161.9522641763715
 30
0.0
 11
155.7984314505382
 21
192.490966209754
 31
0.0
1001
AC_800
1000
ELEMENT_19
1002
{
1071
      863
1005
658B
1003
0
1011
-3.793536292658814
1021
-16.24093981692957
1031
0.0
1011
1.206463707341185
1021
-16.24093981692957
1031
0.0
1011
-3.793536292658814
1021
-11.24093981692957
1031
0.0
1002
}
  0
LINE
  5
658C
330
1F
100
AcDbEntity
  8
zintek
  6
Continuous
 62
     7
100
AcDbLine
 10
68.56904692954436
 20
167.9565613160092
 30
0.0
 11
73.25650060579085
 21
161.9522641763715
 31
0.0
1001
AC_800
1000
ELEMENT_19
1002
{
1071
      862
1005
658C
1003
0
1011
-3.793536292658814
1021
-16.24093981692957
1031
0.0
1011
1.206463707341185
1021
-16.24093981692957
1031
0.0
1011
-3.793536292658814
1021
-11.24093981692957
1031
0.0
1002
}
  0
LINE
  5
658D
330
1F
100
AcDbEntity
  8
zintek
  6
Continuous
 62
     7
100
AcDbLine
 10
70.40384678348636
 20
168.6008641692776
 30
0.0
 11
68.56904692954436
 21
167.9565613160092
 31
0.0
1001
AC_800
1000
ELEMENT_19
1002
{
1071
      861
1005
658D
1003
0
1011
-3.793536292658814
1021
-16.24093981692957
1031
0.0
1011
1.206463707341185
1021
-16.24093981692957
1031
0.0
1011
-3.793536292658814
1021
-11.24093981692957
1031
0.0
1002
}
  0
LINE
  5
658E
330
1F
100
AcDbEntity
  8
zintek
  6
Continuous
 62
     7
100
AcDbLine
 10
71.38293362795582
 20
158.9752787717903
 30
0.0
 11
155.6037636712432
 21
190.606162475623
 31
0.0
1001
AC_800
1000
ELEMENT_19
1002
{
1071
      860
1005
658E
1003
0
1011
-3.793536292658814
1021
-16.24093981692957
1031
0.0
1011
1.206463707341185
1021
-16.24093981692957
1031
0.0
1011
-3.793536292658814
1021
-11.24093981692957
1031
0.0
1002
}
  0
LINE
  5
658F
330
1F
100
AcDbEntity
  8
zintek
  6
Continuous
 62
     7
100
AcDbLine
 10
68.60935584785216
 20
165.764396787818
 30
0.0
 11
73.28310676584243
 21
159.6889282990004
 31
0.0
1001
AC_800
1000
ELEMENT_19
1002
{
1071
      859
1005
658F
1003
0
1011
-3.793536292658814
1021
-16.24093981692957
1031
0.0
1011
1.206463707341185
1021
-16.24093981692957
1031
0.0
1011
-3.793536292658814
1021
-11.24093981692957
1031
0.0
1002
}
  0
LINE
  5
6590
330
1F
100
AcDbEntity
  8
zintek
  6
Continuous
 62
     7
100
AcDbLine
 10
36.40687146184808
 20
209.1540368545522
 30
0.0
 11
37.82243688109594
 21
209.4835149628341
 31
0.0
1001
AC_800
1000
ELEMENT_19
1002
{
1071
      858
1005
6590
1003
0
1011
-3.793536292658814
1021
-16.24093981692957
1031
0.0
1011
1.206463707341185
1021
-16.24093981692957
1031
0.0
1011
-3.793536292658814
1021
-11.24093981692957
1031
0.0
1002
}
  0
LINE
  5
6591
330
1F
100
AcDbEntity
  8
zintek
  6
Continuous
 62
     7
100
AcDbLine
 10
34.17211352773814
 20
212.01660395352
 30
0.0
 11
36.40687146184808
 21
209.1540368545522
 31
0.0
1001
AC_800
1000
ELEMENT_19
1002
{
1071
      857
1005
6591
1003
0
1011
-3.793536292658814
1021
-16.24093981692957
1031
0.0
1011
1.206463707341185
1021
-16.24093981692957
1031
0.0
1011
-3.793536292658814
1021
-11.24093981692957
1031
0.0
1002
}
  0
LINE
  5
6592
330
1F
100
AcDbEntity
  8
zintek
  6
Continuous
 62
     7
100
AcDbLine
 10
35.55546890956885
 20
212.3280826025779
 30
0.0
 11
34.17211352773814
 21
212.01660395352
 31
0.0
1001
AC_800
1000
ELEMENT_19
1002
{
1071
      856
1005
6592
1003
0
1011
-3.793536292658814
1021
-16.24093981692957
1031
0.0
1011
1.206463707341185
1021
-16.24093981692957
1031
0.0
1011
-3.793536292658814
1021
-11.24093981692957
1031
0.0
1002
}
  0
LINE
  5
6593
330
1F
100
AcDbEntity
  8
zintek
  6
Continuous
 62
     7
100
AcDbLine
 10
34.27548793331658
 20
210.3954300358807
 30
0.0
 11
36.50815472733859
 21
207.493157965519
 31
0.0
1001
AC_800
1000
ELEMENT_19
1002
{
1071
      855
1005
6593
1003
0
1011
-3.793536292658814
1021
-16.24093981692957
1031
0.0
1011
1.206463707341185
1021
-16.24093981692957
1031
0.0
1011
-3.793536292658814
1021
-11.24093981692957
1031
0.0
1002
}
  0
LINE
  5
6594
330
1F
100
AcDbEntity
  8
zintek
  6
Continuous
 62
     7
100
AcDbLine
 10
56.51224869319879
 20
183.4004684271402
 30
0.0
 11
58.19955135988118
 21
183.9145253848011
 31
0.0
1001
AC_800
1000
ELEMENT_19
1002
{
1071
      854
1005
6594
1003
0
1011
-3.793536292658814
1021
-16.24093981692957
1031
0.0
1011
1.206463707341185
1021
-16.24093981692957
1031
0.0
1011
-3.793536292658814
1021
-11.24093981692957
1031
0.0
1002
}
  0
LINE
  5
6595
330
1F
100
AcDbEntity
  8
zintek
  6
Continuous
 62
     7
100
AcDbLine
 10
53.04676001426447
 20
187.8395146982138
 30
0.0
 11
56.51224869319879
 21
183.4004684271402
 31
0.0
1001
AC_800
1000
ELEMENT_19
1002
{
1071
      853
1005
6595
1003
0
1011
-3.793536292658814
1021
-16.24093981692957
1031
0.0
1011
1.206463707341185
1021
-16.24093981692957
1031
0.0
1011
-3.793536292658814
1021
-11.24093981692957
1031
0.0
1002
}
  0
LINE
  5
6596
330
1F
100
AcDbEntity
  8
zintek
  6
Continuous
 62
     7
100
AcDbLine
 10
54.68953943890944
 20
188.3188515380224
 30
0.0
 11
53.04676001426447
 21
187.8395146982138
 31
0.0
1001
AC_800
1000
ELEMENT_19
1002
{
1071
      852
1005
6596
1003
0
1011
-3.793536292658814
1021
-16.24093981692957
1031
0.0
1011
1.206463707341185
1021
-16.24093981692957
1031
0.0
1011
-3.793536292658814
1021
-11.24093981692957
1031
0.0
1002
}
  0
LINE
  5
6597
330
1F
100
AcDbEntity
  8
zintek
  6
Continuous
 62
     7
100
AcDbLine
 10
53.12370241103798
 20
185.8943953981357
 30
0.0
 11
56.58217733087105
 21
181.3986796949448
 31
0.0
1001
AC_800
1000
ELEMENT_19
1002
{
1071
      851
1005
6597
1003
0
1011
-3.793536292658814
1021
-16.24093981692957
1031
0.0
1011
1.206463707341185
1021
-16.24093981692957
1031
0.0
1011
-3.793536292658814
1021
-11.24093981692957
1031
0.0
1002
}
  0
LINE
  5
6598
330
1F
100
AcDbEntity
  8
zintek
  6
Continuous
 62
     7
100
AcDbLine
 10
49.81194473209905
 20
191.9830846377712
 30
0.0
 11
51.41229482224139
 21
192.4311037185501
 31
0.0
1001
AC_800
1000
ELEMENT_19
1002
{
1071
      850
1005
6598
1003
0
1011
-3.793536292658814
1021
-16.24093981692957
1031
0.0
1011
1.206463707341185
1021
-16.24093981692957
1031
0.0
1011
-3.793536292658814
1021
-11.24093981692957
1031
0.0
1002
}
  0
LINE
  5
6599
330
1F
100
AcDbEntity
  8
zintek
  6
Continuous
 62
     7
100
AcDbLine
 10
46.78551320240109
 20
195.8597297061073
 30
0.0
 11
49.81194473209905
 21
191.9830846377712
 31
0.0
1001
AC_800
1000
ELEMENT_19
1002
{
1071
      849
1005
6599
1003
0
1011
-3.793536292658814
1021
-16.24093981692957
1031
0.0
1011
1.206463707341185
1021
-16.24093981692957
1031
0.0
1011
-3.793536292658814
1021
-11.24093981692957
1031
0.0
1002
}
  0
LINE
  5
659A
330
1F
100
AcDbEntity
  8
zintek
  6
Continuous
 62
     7
100
AcDbLine
 10
48.34540657171817
 20
196.2794029365901
 30
0.0
 11
46.78551320240109
 21
195.8597297061073
 31
0.0
1001
AC_800
1000
ELEMENT_19
1002
{
1071
      848
1005
659A
1003
0
1011
-3.793536292658814
1021
-16.24093981692957
1031
0.0
1011
1.206463707341185
1021
-16.24093981692957
1031
0.0
1011
-3.793536292658814
1021
-11.24093981692957
1031
0.0
1002
}
  0
LINE
  5
659B
330
1F
100
AcDbEntity
  8
zintek
  6
Continuous
 62
     7
100
AcDbLine
 10
46.8734285602452
 20
194.0192061750227
 30
0.0
 11
49.89482938980575
 21
190.0916486619714
 31
0.0
1001
AC_800
1000
ELEMENT_19
1002
{
1071
      847
1005
659B
1003
0
1011
-3.793536292658814
1021
-16.24093981692957
1031
0.0
1011
1.206463707341185
1021
-16.24093981692957
1031
0.0
1011
-3.793536292658814
1021
-11.24093981692957
1031
0.0
1002
}
  0
LINE
  5
659C
330
1F
100
AcDbEntity
  8
zintek
  6
Continuous
 62
     7
100
AcDbLine
 10
68.56904692954436
 20
167.9565613160092
 30
0.0
 11
70.40384678348636
 21
168.6008641692776
 31
0.0
1001
AC_800
1000
ELEMENT_19
1002
{
1071
      846
1005
659C
1003
0
1011
-3.793536292658814
1021
-16.24093981692957
1031
0.0
1011
1.206463707341185
1021
-16.24093981692957
1031
0.0
1011
-3.793536292658814
1021
-11.24093981692957
1031
0.0
1002
}
  0
LINE
  5
659D
330
1F
100
AcDbEntity
  8
zintek
  6
Continuous
 62
     7
100
AcDbLine
 10
64.24151994882214
 20
173.4998177760631
 30
0.0
 11
68.56904692954436
 21
167.9565613160092
 31
0.0
1001
AC_800
1000
ELEMENT_19
1002
{
1071
      845
1005
659D
1003
0
1011
-3.793536292658814
1021
-16.24093981692957
1031
0.0
1011
1.206463707341185
1021
-16.24093981692957
1031
0.0
1011
-3.793536292658814
1021
-11.24093981692957
1031
0.0
1002
}
  0
LINE
  5
659E
330
1F
100
AcDbEntity
  8
zintek
  6
Continuous
 62
     7
100
AcDbLine
 10
66.02465528200844
 20
174.095667035637
 30
0.0
 11
64.24151994882214
 21
173.4998177760631
 31
0.0
1001
AC_800
1000
ELEMENT_19
1002
{
1071
      844
1005
659E
1003
0
1011
-3.793536292658814
1021
-16.24093981692957
1031
0.0
1011
1.206463707341185
1021
-16.24093981692957
1031
0.0
1011
-3.793536292658814
1021
-11.24093981692957
1031
0.0
1002
}
  0
LINE
  5
659F
330
1F
100
AcDbEntity
  8
zintek
  6
Continuous
 62
     7
100
AcDbLine
 10
64.29339255241507
 20
171.3747725781474
 30
0.0
 11
68.60935584785216
 21
165.764396787818
 31
0.0
1001
AC_800
1000
ELEMENT_19
1002
{
1071
      843
1005
659F
1003
0
1011
-3.793536292658814
1021
-16.24093981692957
1031
0.0
1011
1.206463707341185
1021
-16.24093981692957
1031
0.0
1011
-3.793536292658814
1021
-11.24093981692957
1031
0.0
1002
}
  0
LINE
  5
65A0
330
1F
100
AcDbEntity
  8
zintek
  6
Continuous
 62
     7
100
AcDbLine
 10
39.68288955400118
 20
224.451519135427
 30
0.0
 11
37.39351277417433
 21
226.8516881608503
 31
0.0
1001
AC_800
1000
ELEMENT_19
1002
{
1071
      840
1005
65A0
1003
0
1011
-3.793536292658814
1021
-16.24093981692957
1031
0.0
1011
1.206463707341185
1021
-16.24093981692957
1031
0.0
1011
-3.793536292658814
1021
-11.24093981692957
1031
0.0
1002
}
  0
LINE
  5
65A1
330
1F
100
AcDbEntity
  8
zintek
  6
Continuous
 62
     7
100
AcDbLine
 10
39.76670900451899
 20
222.9382394538865
 30
0.0
 11
39.68288955400118
 21
224.451519135427
 31
0.0
1001
AC_800
1000
ELEMENT_19
1002
{
1071
      838
1005
65A1
1003
0
1011
-3.793536292658814
1021
-16.24093981692957
1031
0.0
1011
1.206463707341185
1021
-16.24093981692957
1031
0.0
1011
-3.793536292658814
1021
-11.24093981692957
1031
0.0
1002
}
  0
LINE
  5
65A2
330
1F
100
AcDbEntity
  8
zintek
  6
Continuous
 62
     7
100
AcDbLine
 10
37.4795255262942
 20
225.3749595401731
 30
0.0
 11
37.39351277417433
 21
226.8516881608503
 31
0.0
1001
AC_800
1000
ELEMENT_19
1002
{
1071
      837
1005
65A2
1003
0
1011
-3.793536292658814
1021
-16.24093981692957
1031
0.0
1011
1.206463707341185
1021
-16.24093981692957
1031
0.0
1011
-3.793536292658814
1021
-11.24093981692957
1031
0.0
1002
}
  0
LINE
  5
65A3
330
1F
100
AcDbEntity
  8
zintek
  6
Continuous
 62
     7
100
AcDbLine
 10
37.4795255262942
 20
225.3749595401731
 30
0.0
 11
39.76670900451899
 21
222.9382394538865
 31
0.0
1001
AC_800
1000
ELEMENT_19
1002
{
1071
      835
1005
65A3
1003
0
1011
-3.793536292658814
1021
-16.24093981692957
1031
0.0
1011
1.206463707341185
1021
-16.24093981692957
1031
0.0
1011
-3.793536292658814
1021
-11.24093981692957
1031
0.0
1002
}
  0
LINE
  5
65A4
330
1F
100
AcDbEntity
  8
zintek
  6
Continuous
 62
     7
100
AcDbLine
 10
144.0469962988246
 20
207.9061609880398
 30
0.0
 11
139.6674347130514
 21
210.3364765127039
 31
0.0
1001
AC_800
1000
ELEMENT_19
1002
{
1071
      834
1005
65A4
1003
0
1011
-3.793536292658814
1021
-16.24093981692957
1031
0.0
1011
1.206463707341185
1021
-16.24093981692957
1031
0.0
1011
-3.793536292658814
1021
-11.24093981692957
1031
0.0
1002
}
  0
LINE
  5
65A5
330
1F
100
AcDbEntity
  8
zintek
  6
Continuous
 62
     7
100
AcDbLine
 10
144.0158456017696
 20
207.5403461930623
 30
0.0
 11
144.0469962988246
 21
207.9061609880398
 31
0.0
1001
AC_800
1000
ELEMENT_19
1002
{
1071
      833
1005
65A5
1003
0
1011
-3.793536292658814
1021
-16.24093981692957
1031
0.0
1011
1.206463707341185
1021
-16.24093981692957
1031
0.0
1011
-3.793536292658814
1021
-11.24093981692957
1031
0.0
1002
}
  0
LINE
  5
65A6
330
1F
100
AcDbEntity
  8
zintek
  6
Continuous
 62
     7
100
AcDbLine
 10
69.39628590081236
 20
184.2466791768282
 30
0.0
 11
69.38900863553732
 21
184.6796938033337
 31
0.0
1001
AC_800
1000
ELEMENT_19
1002
{
1071
      832
1005
65A6
1003
0
1011
-3.793536292658814
1021
-16.24093981692957
1031
0.0
1011
1.206463707341185
1021
-16.24093981692957
1031
0.0
1011
-3.793536292658814
1021
-11.24093981692957
1031
0.0
1002
}
  0
LINE
  5
65A7
330
1F
100
AcDbEntity
  8
zintek
  6
Continuous
 62
     7
100
AcDbLine
 10
35.68668537905927
 20
222.2754514341079
 30
0.0
 11
35.66716547853093
 21
222.5961061042856
 31
0.0
1001
AC_800
1000
ELEMENT_19
1002
{
1071
      831
1005
65A7
1003
0
1011
-3.793536292658814
1021
-16.24093981692957
1031
0.0
1011
1.206463707341185
1021
-16.24093981692957
1031
0.0
1011
-3.793536292658814
1021
-11.24093981692957
1031
0.0
1002
}
  0
LINE
  5
65A8
330
1F
100
AcDbEntity
  8
zintek
  6
Continuous
 62
     7
100
AcDbLine
 10
69.38900863553732
 20
184.6796938033337
 30
0.0
 11
144.0469962988246
 21
207.9061609880398
 31
0.0
1001
AC_800
1000
ELEMENT_19
1002
{
1071
      830
1005
65A8
1003
0
1011
-3.793536292658814
1021
-16.24093981692957
1031
0.0
1011
1.206463707341185
1021
-16.24093981692957
1031
0.0
1011
-3.793536292658814
1021
-11.24093981692957
1031
0.0
1002
}
  0
LINE
  5
65A9
330
1F
100
AcDbEntity
  8
zintek
  6
Continuous
 62
     7
100
AcDbLine
 10
35.66716547853093
 20
222.5961061042856
 30
0.0
 11
69.38900863553732
 21
184.6796938033337
 31
0.0
1001
AC_800
1000
ELEMENT_19
1002
{
1071
      829
1005
65A9
1003
0
1011
-3.793536292658814
1021
-16.24093981692957
1031
0.0
1011
1.206463707341185
1021
-16.24093981692957
1031
0.0
1011
-3.793536292658814
1021
-11.24093981692957
1031
0.0
1002
}
  0
LINE
  5
65AA
330
1F
100
AcDbEntity
  8
zintek
  6
Continuous
 62
     7
100
AcDbLine
 10
38.00881738865206
 20
223.0693437891447
 30
0.0
 11
35.66716547853093
 21
222.5961061042856
 31
0.0
1001
AC_800
1000
ELEMENT_19
1002
{
1071
      828
1005
65AA
1003
0
1011
-3.793536292658814
1021
-16.24093981692957
1031
0.0
1011
1.206463707341185
1021
-16.24093981692957
1031
0.0
1011
-3.793536292658814
1021
-11.24093981692957
1031
0.0
1002
}
  0
LINE
  5
65AB
330
1F
100
AcDbEntity
  8
zintek
  6
Continuous
 62
     7
100
AcDbLine
 10
69.39628590081236
 20
184.2466791768282
 30
0.0
 11
144.0158456017696
 21
207.5403461930623
 31
0.0
1001
AC_800
1000
ELEMENT_19
1002
{
1071
      827
1005
65AB
1003
0
1011
-3.793536292658814
1021
-16.24093981692957
1031
0.0
1011
1.206463707341185
1021
-16.24093981692957
1031
0.0
1011
-3.793536292658814
1021
-11.24093981692957
1031
0.0
1002
}
  0
LINE
  5
65AC
330
1F
100
AcDbEntity
  8
zintek
  6
Continuous
 62
     7
100
AcDbLine
 10
35.68668537905927
 20
222.2754514341079
 30
0.0
 11
69.39628590081236
 21
184.2466791768282
 31
0.0
1001
AC_800
1000
ELEMENT_19
1002
{
1071
      826
1005
65AC
1003
0
1011
-3.793536292658814
1021
-16.24093981692957
1031
0.0
1011
1.206463707341185
1021
-16.24093981692957
1031
0.0
1011
-3.793536292658814
1021
-11.24093981692957
1031
0.0
1002
}
  0
LINE
  5
65AD
330
1F
100
AcDbEntity
  8
zintek
  6
Continuous
 62
     7
100
AcDbLine
 10
53.04676001426447
 20
187.8395146982138
 30
0.0
 11
54.68953943890944
 21
188.3188515380224
 31
0.0
1001
AC_800
1000
ELEMENT_19
1002
{
1071
      825
1005
65AD
1003
0
1011
-3.793536292658814
1021
-16.24093981692957
1031
0.0
1011
1.206463707341185
1021
-16.24093981692957
1031
0.0
1011
-3.793536292658814
1021
-11.24093981692957
1031
0.0
1002
}
  0
LINE
  5
65AE
330
1F
100
AcDbEntity
  8
zintek
  6
Continuous
 62
     7
100
AcDbLine
 10
49.81194473209905
 20
191.9830846377712
 30
0.0
 11
53.04676001426447
 21
187.8395146982138
 31
0.0
1001
AC_800
1000
ELEMENT_19
1002
{
1071
      824
1005
65AE
1003
0
1011
-3.793536292658814
1021
-16.24093981692957
1031
0.0
1011
1.206463707341185
1021
-16.24093981692957
1031
0.0
1011
-3.793536292658814
1021
-11.24093981692957
1031
0.0
1002
}
  0
LINE
  5
65AF
330
1F
100
AcDbEntity
  8
zintek
  6
Continuous
 62
     7
100
AcDbLine
 10
51.41229482224139
 20
192.4311037185501
 30
0.0
 11
49.81194473209905
 21
191.9830846377712
 31
0.0
1001
AC_800
1000
ELEMENT_19
1002
{
1071
      823
1005
65AF
1003
0
1011
-3.793536292658814
1021
-16.24093981692957
1031
0.0
1011
1.206463707341185
1021
-16.24093981692957
1031
0.0
1011
-3.793536292658814
1021
-11.24093981692957
1031
0.0
1002
}
  0
LINE
  5
65B0
330
1F
100
AcDbEntity
  8
zintek
  6
Continuous
 62
     7
100
AcDbLine
 10
49.89482938980575
 20
190.0916486619714
 30
0.0
 11
53.12370241103798
 21
185.8943953981357
 31
0.0
1001
AC_800
1000
ELEMENT_19
1002
{
1071
      822
1005
65B0
1003
0
1011
-3.793536292658814
1021
-16.24093981692957
1031
0.0
1011
1.206463707341185
1021
-16.24093981692957
1031
0.0
1011
-3.793536292658814
1021
-11.24093981692957
1031
0.0
1002
}
  0
LINE
  5
65B1
330
1F
100
AcDbEntity
  8
zintek
  6
Continuous
 62
     7
100
AcDbLine
 10
60.23399687947199
 20
178.6331718237556
 30
0.0
 11
61.96804222759886
 21
179.1858625595565
 31
0.0
1001
AC_800
1000
ELEMENT_19
1002
{
1071
      821
1005
65B1
1003
0
1011
-3.793536292658814
1021
-16.24093981692957
1031
0.0
1011
1.206463707341185
1021
-16.24093981692957
1031
0.0
1011
-3.793536292658814
1021
-11.24093981692957
1031
0.0
1002
}
  0
LINE
  5
65B2
330
1F
100
AcDbEntity
  8
zintek
  6
Continuous
 62
     7
100
AcDbLine
 10
56.51224869319879
 20
183.4004684271402
 30
0.0
 11
60.23399687947199
 21
178.6331718237556
 31
0.0
1001
AC_800
1000
ELEMENT_19
1002
{
1071
      820
1005
65B2
1003
0
1011
-3.793536292658814
1021
-16.24093981692957
1031
0.0
1011
1.206463707341185
1021
-16.24093981692957
1031
0.0
1011
-3.793536292658814
1021
-11.24093981692957
1031
0.0
1002
}
  0
LINE
  5
65B3
330
1F
100
AcDbEntity
  8
zintek
  6
Continuous
 62
     7
100
AcDbLine
 10
58.1995513598813
 20
183.9145253848011
 30
0.0
 11
56.51224869319879
 21
183.4004684271402
 31
0.0
1001
AC_800
1000
ELEMENT_19
1002
{
1071
      819
1005
65B3
1003
0
1011
-3.793536292658814
1021
-16.24093981692957
1031
0.0
1011
1.206463707341185
1021
-16.24093981692957
1031
0.0
1011
-3.793536292658814
1021
-11.24093981692957
1031
0.0
1002
}
  0
LINE
  5
65B4
330
1F
100
AcDbEntity
  8
zintek
  6
Continuous
 62
     7
100
AcDbLine
 10
56.58217733087105
 20
181.3986796949448
 30
0.0
 11
60.29564712221492
 21
176.5714929027171
 31
0.0
1001
AC_800
1000
ELEMENT_19
1002
{
1071
      818
1005
65B4
1003
0
1011
-3.793536292658814
1021
-16.24093981692957
1031
0.0
1011
1.206463707341185
1021
-16.24093981692957
1031
0.0
1011
-3.793536292658814
1021
-11.24093981692957
1031
0.0
1002
}
  0
LINE
  5
65B5
330
1F
100
AcDbEntity
  8
zintek
  6
Continuous
 62
     7
100
AcDbLine
 10
64.24151994882214
 20
173.4998177760631
 30
0.0
 11
66.02465528200844
 21
174.095667035637
 31
0.0
1001
AC_800
1000
ELEMENT_19
1002
{
1071
      817
1005
65B5
1003
0
1011
-3.793536292658814
1021
-16.24093981692957
1031
0.0
1011
1.206463707341185
1021
-16.24093981692957
1031
0.0
1011
-3.793536292658814
1021
-11.24093981692957
1031
0.0
1002
}
  0
LINE
  5
65B6
330
1F
100
AcDbEntity
  8
zintek
  6
Continuous
 62
     7
100
AcDbLine
 10
60.23399687947199
 20
178.6331718237556
 30
0.0
 11
64.24151994882214
 21
173.4998177760631
 31
0.0
1001
AC_800
1000
ELEMENT_19
1002
{
1071
      816
1005
65B6
1003
0
1011
-3.793536292658814
1021
-16.24093981692957
1031
0.0
1011
1.206463707341185
1021
-16.24093981692957
1031
0.0
1011
-3.793536292658814
1021
-11.24093981692957
1031
0.0
1002
}
  0
LINE
  5
65B7
330
1F
100
AcDbEntity
  8
zintek
  6
Continuous
 62
     7
100
AcDbLine
 10
61.96804222759886
 20
179.1858625595565
 30
0.0
 11
60.23399687947199
 21
178.6331718237556
 31
0.0
1001
AC_800
1000
ELEMENT_19
1002
{
1071
      815
1005
65B7
1003
0
1011
-3.793536292658814
1021
-16.24093981692957
1031
0.0
1011
1.206463707341185
1021
-16.24093981692957
1031
0.0
1011
-3.793536292658814
1021
-11.24093981692957
1031
0.0
1002
}
  0
LINE
  5
65B8
330
1F
100
AcDbEntity
  8
zintek
  6
Continuous
 62
     7
100
AcDbLine
 10
60.29564712221492
 20
176.5714929027171
 30
0.0
 11
64.29339255241507
 21
171.3747725781474
 31
0.0
1001
AC_800
1000
ELEMENT_19
1002
{
1071
      814
1005
65B8
1003
0
1011
-3.793536292658814
1021
-16.24093981692957
1031
0.0
1011
1.206463707341185
1021
-16.24093981692957
1031
0.0
1011
-3.793536292658814
1021
-11.24093981692957
1031
0.0
1002
}
  0
LINE
  5
65B9
330
1F
100
AcDbEntity
  8
zintek
  6
Continuous
 62
     7
100
AcDbLine
 10
43.94795792508211
 20
199.4944376332508
 30
0.0
 11
45.46925126794599
 21
199.8883724530307
 31
0.0
1001
AC_800
1000
ELEMENT_19
1002
{
1071
      813
1005
65B9
1003
0
1011
-3.793536292658814
1021
-16.24093981692957
1031
0.0
1011
1.206463707341185
1021
-16.24093981692957
1031
0.0
1011
-3.793536292658814
1021
-11.24093981692957
1031
0.0
1002
}
  0
LINE
  5
65BA
330
1F
100
AcDbEntity
  8
zintek
  6
Continuous
 62
     7
100
AcDbLine
 10
41.28213260312555
 20
202.9091716148385
 30
0.0
 11
43.94795792508211
 21
199.4944376332508
 31
0.0
1001
AC_800
1000
ELEMENT_19
1002
{
1071
      812
1005
65BA
1003
0
1011
-3.793536292658814
1021
-16.24093981692957
1031
0.0
1011
1.206463707341185
1021
-16.24093981692957
1031
0.0
1011
-3.793536292658814
1021
-11.24093981692957
1031
0.0
1002
}
  0
LINE
  5
65BB
330
1F
100
AcDbEntity
  8
zintek
  6
Continuous
 62
     7
100
AcDbLine
 10
42.76657268388766
 20
203.2796652006131
 30
0.0
 11
41.28213260312555
 21
202.9091716148385
 31
0.0
1001
AC_800
1000
ELEMENT_19
1002
{
1071
      811
1005
65BB
1003
0
1011
-3.793536292658814
1021
-16.24093981692957
1031
0.0
1011
1.206463707341185
1021
-16.24093981692957
1031
0.0
1011
-3.793536292658814
1021
-11.24093981692957
1031
0.0
1002
}
  0
LINE
  5
65BC
330
1F
100
AcDbEntity
  8
zintek
  6
Continuous
 62
     7
100
AcDbLine
 10
41.37788564248075
 20
201.162932576296
 30
0.0
 11
44.04012559335206
 21
197.7022528749169
 31
0.0
1001
AC_800
1000
ELEMENT_19
1002
{
1071
      810
1005
65BC
1003
0
1011
-3.793536292658814
1021
-16.24093981692957
1031
0.0
1011
1.206463707341185
1021
-16.24093981692957
1031
0.0
1011
-3.793536292658814
1021
-11.24093981692957
1031
0.0
1002
}
  0
LINE
  5
65BD
330
1F
100
AcDbEntity
  8
zintek
  6
Continuous
 62
     7
100
AcDbLine
 10
152.5757086351121
 20
194.8176882366096
 30
0.0
 11
146.3599008966787
 21
198.5309883363123
 31
0.0
1001
AC_800
1000
ELEMENT_19
1002
{
1071
      809
1005
65BD
1003
0
1011
-3.793536292658814
1021
-16.24093981692957
1031
0.0
1011
1.206463707341185
1021
-16.24093981692957
1031
0.0
1011
-3.793536292658814
1021
-11.24093981692957
1031
0.0
1002
}
  0
LINE
  5
65BE
330
1F
100
AcDbEntity
  8
zintek
  6
Continuous
 62
     7
100
AcDbLine
 10
152.5389719757803
 20
194.4446997652979
 30
0.0
 11
152.5757086351121
 21
194.8176882366096
 31
0.0
1001
AC_800
1000
ELEMENT_19
1002
{
1071
      808
1005
65BE
1003
0
1011
-3.793536292658814
1021
-16.24093981692957
1031
0.0
1011
1.206463707341185
1021
-16.24093981692957
1031
0.0
1011
-3.793536292658814
1021
-11.24093981692957
1031
0.0
1002
}
  0
LINE
  5
65BF
330
1F
100
AcDbEntity
  8
zintek
  6
Continuous
 62
     7
100
AcDbLine
 10
72.72630909601224
 20
165.686502101895
 30
0.0
 11
72.7207591009992
 21
166.1320641868492
 31
0.0
1001
AC_800
1000
ELEMENT_19
1002
{
1071
      807
1005
65BF
1003
0
1011
-3.793536292658814
1021
-16.24093981692957
1031
0.0
1011
1.206463707341185
1021
-16.24093981692957
1031
0.0
1011
-3.793536292658814
1021
-11.24093981692957
1031
0.0
1002
}
  0
LINE
  5
65C0
330
1F
100
AcDbEntity
  8
zintek
  6
Continuous
 62
     7
100
AcDbLine
 10
33.41051548943631
 20
215.0195476626498
 30
0.0
 11
33.39008238599684
 21
215.3361814195012
 31
0.0
1001
AC_800
1000
ELEMENT_19
1002
{
1071
      806
1005
65C0
1003
0
1011
-3.793536292658814
1021
-16.24093981692957
1031
0.0
1011
1.206463707341185
1021
-16.24093981692957
1031
0.0
1011
-3.793536292658814
1021
-11.24093981692957
1031
0.0
1002
}
  0
LINE
  5
65C1
330
1F
100
AcDbEntity
  8
zintek
  6
Continuous
 62
     7
100
AcDbLine
 10
72.7207591009992
 20
166.1320641868492
 30
0.0
 11
152.5757086351121
 21
194.8176882366096
 31
0.0
1001
AC_800
1000
ELEMENT_19
1002
{
1071
      805
1005
65C1
1003
0
1011
-3.793536292658814
1021
-16.24093981692957
1031
0.0
1011
1.206463707341185
1021
-16.24093981692957
1031
0.0
1011
-3.793536292658814
1021
-11.24093981692957
1031
0.0
1002
}
  0
LINE
  5
65C2
330
1F
100
AcDbEntity
  8
zintek
  6
Continuous
 62
     7
100
AcDbLine
 10
33.39008238599684
 20
215.3361814195012
 30
0.0
 11
72.7207591009992
 21
166.1320641868492
 31
0.0
1001
AC_800
1000
ELEMENT_19
1002
{
1071
      804
1005
65C2
1003
0
1011
-3.793536292658814
1021
-16.24093981692957
1031
0.0
1011
1.206463707341185
1021
-16.24093981692957
1031
0.0
1011
-3.793536292658814
1021
-11.24093981692957
1031
0.0
1002
}
  0
LINE
  5
65C3
330
1F
100
AcDbEntity
  8
zintek
  6
Continuous
 62
     7
100
AcDbLine
 10
34.73590824098585
 20
215.6286696739771
 30
0.0
 11
33.39008238599684
 21
215.3361814195012
 31
0.0
1001
AC_800
1000
ELEMENT_19
1002
{
1071
      803
1005
65C3
1003
0
1011
-3.793536292658814
1021
-16.24093981692957
1031
0.0
1011
1.206463707341185
1021
-16.24093981692957
1031
0.0
1011
-3.793536292658814
1021
-11.24093981692957
1031
0.0
1002
}
  0
LINE
  5
65C4
330
1F
100
AcDbEntity
  8
zintek
  6
Continuous
 62
     7
100
AcDbLine
 10
72.72630909601224
 20
165.686502101895
 30
0.0
 11
152.5389719757803
 21
194.4446997652979
 31
0.0
1001
AC_800
1000
ELEMENT_19
1002
{
1071
      802
1005
65C4
1003
0
1011
-3.793536292658814
1021
-16.24093981692957
1031
0.0
1011
1.206463707341185
1021
-16.24093981692957
1031
0.0
1011
-3.793536292658814
1021
-11.24093981692957
1031
0.0
1002
}
  0
LINE
  5
65C5
330
1F
100
AcDbEntity
  8
zintek
  6
Continuous
 62
     7
100
AcDbLine
 10
33.41051548943631
 20
215.0195476626498
 30
0.0
 11
72.72630909601224
 21
165.686502101895
 31
0.0
1001
AC_800
1000
ELEMENT_19
1002
{
1071
      801
1005
65C5
1003
0
1011
-3.793536292658814
1021
-16.24093981692957
1031
0.0
1011
1.206463707341185
1021
-16.24093981692957
1031
0.0
1011
-3.793536292658814
1021
-11.24093981692957
1031
0.0
1002
}
  0
LINE
  5
65C6
330
1F
100
AcDbEntity
  8
zintek
  6
Continuous
 62
     7
100
AcDbLine
 10
32.16309676683471
 20
213.1413542824247
 30
0.0
 11
32.05800100321744
 21
214.7246328025682
 31
0.0
1001
AC_800
1000
ELEMENT_19
1002
{
1071
      800
1005
65C6
1003
0
1011
-3.793536292658814
1021
-16.24093981692957
1031
0.0
1011
1.206463707341185
1021
-16.24093981692957
1031
0.0
1011
-3.793536292658814
1021
-11.24093981692957
1031
0.0
1002
}
  0
LINE
  5
65C7
330
1F
100
AcDbEntity
  8
zintek
  6
Continuous
 62
     7
100
AcDbLine
 10
34.17211352773814
 20
212.01660395352
 30
0.0
 11
35.55546890956885
 21
212.3280826025779
 31
0.0
1001
AC_800
1000
ELEMENT_19
1002
{
1071
      799
1005
65C7
1003
0
1011
-3.793536292658814
1021
-16.24093981692957
1031
0.0
1011
1.206463707341185
1021
-16.24093981692957
1031
0.0
1011
-3.793536292658814
1021
-11.24093981692957
1031
0.0
1002
}
  0
LINE
  5
65C8
330
1F
100
AcDbEntity
  8
zintek
  6
Continuous
 62
     7
100
AcDbLine
 10
32.05800100321744
 20
214.7246328025682
 30
0.0
 11
34.17211352773814
 21
212.01660395352
 31
0.0
1001
AC_800
1000
ELEMENT_19
1002
{
1071
      798
1005
65C8
1003
0
1011
-3.793536292658814
1021
-16.24093981692957
1031
0.0
1011
1.206463707341185
1021
-16.24093981692957
1031
0.0
1011
-3.793536292658814
1021
-11.24093981692957
1031
0.0
1002
}
  0
LINE
  5
65C9
330
1F
100
AcDbEntity
  8
zintek
  6
Continuous
 62
     7
100
AcDbLine
 10
33.41051548943631
 20
215.0195476626498
 30
0.0
 11
32.05800100321744
 21
214.7246328025682
 31
0.0
1001
AC_800
1000
ELEMENT_19
1002
{
1071
      797
1005
65C9
1003
0
1011
-3.793536292658814
1021
-16.24093981692957
1031
0.0
1011
1.206463707341185
1021
-16.24093981692957
1031
0.0
1011
-3.793536292658814
1021
-11.24093981692957
1031
0.0
1002
}
  0
LINE
  5
65CA
330
1F
100
AcDbEntity
  8
zintek
  6
Continuous
 62
     7
100
AcDbLine
 10
32.16309676683471
 20
213.1413542824247
 30
0.0
 11
34.27548793331658
 21
210.3954300358807
 31
0.0
1001
AC_800
1000
ELEMENT_19
1002
{
1071
      796
1005
65CA
1003
0
1011
-3.793536292658814
1021
-16.24093981692957
1031
0.0
1011
1.206463707341185
1021
-16.24093981692957
1031
0.0
1011
-3.793536292658814
1021
-11.24093981692957
1031
0.0
1002
}
  0
LINE
  5
65CB
330
1F
100
AcDbEntity
  8
zintek
  6
Continuous
 62
     7
100
AcDbLine
 10
103.5841401677431
 20
202.0542066918889
 30
0.0
 11
107.1981015913943
 21
203.1138077011335
 31
0.0
1001
AC_800
1000
ELEMENT_19
1002
{
1071
      795
1005
65CB
1003
0
1011
-3.793536292658814
1021
-16.24093981692957
1031
0.0
1011
1.206463707341185
1021
-16.24093981692957
1031
0.0
1011
-3.793536292658814
1021
-11.24093981692957
1031
0.0
1002
}
  0
LINE
  5
65CC
330
1F
100
AcDbEntity
  8
zintek
  6
Continuous
 62
     7
100
AcDbLine
 10
103.4632847901051
 20
198.0817725235128
 30
0.0
 11
107.0589283703902
 21
199.1736247382463
 31
0.0
1001
AC_800
1000
ELEMENT_19
1002
{
1071
      794
1005
65CC
1003
0
1011
-3.793536292658814
1021
-16.24093981692957
1031
0.0
1011
1.206463707341185
1021
-16.24093981692957
1031
0.0
1011
-3.793536292658814
1021
-11.24093981692957
1031
0.0
1002
}
  0
LINE
  5
65CD
330
1F
100
AcDbEntity
  8
zintek
  6
Continuous
 62
     7
100
AcDbLine
 10
107.0589283703902
 20
199.1736247382463
 30
0.0
 11
107.1981015913943
 21
203.1138077011335
 31
0.0
1001
AC_800
1000
ELEMENT_19
1002
{
1071
      793
1005
65CD
1003
0
1011
-3.793536292658814
1021
-16.24093981692957
1031
0.0
1011
1.206463707341185
1021
-16.24093981692957
1031
0.0
1011
-3.793536292658814
1021
-11.24093981692957
1031
0.0
1002
}
  0
LINE
  5
65CE
330
1F
100
AcDbEntity
  8
zintek
  6
Continuous
 62
     7
100
AcDbLine
 10
103.4632847901051
 20
198.0817725235128
 30
0.0
 11
103.5841401677431
 21
202.0542066918889
 31
0.0
1001
AC_800
1000
ELEMENT_19
1002
{
1071
      792
1005
65CE
1003
0
1011
-3.793536292658814
1021
-16.24093981692957
1031
0.0
1011
1.206463707341185
1021
-16.24093981692957
1031
0.0
1011
-3.793536292658814
1021
-11.24093981692957
1031
0.0
1002
}
  0
LINE
  5
65CF
330
1F
100
AcDbEntity
  8
zintek
  6
Continuous
 62
     7
100
AcDbLine
 10
99.77433559783754
 20
200.937185148472
 30
0.0
 11
103.4632847901051
 21
198.0817725235128
 31
0.0
1001
AC_800
1000
ELEMENT_19
1002
{
1071
      791
1005
65CF
1003
0
1011
-3.793536292658814
1021
-16.24093981692957
1031
0.0
1011
1.206463707341185
1021
-16.24093981692957
1031
0.0
1011
-3.793536292658814
1021
-11.24093981692957
1031
0.0
1002
}
  0
LINE
  5
65D0
330
1F
100
AcDbEntity
  8
zintek
  6
Continuous
 62
     7
100
AcDbLine
 10
70.21292641004868
 20
192.269882059657
 30
0.0
 11
74.49292975056898
 21
193.5247642588707
 31
0.0
1001
AC_800
1000
ELEMENT_19
1002
{
1071
      790
1005
65D0
1003
0
1011
-3.793536292658814
1021
-16.24093981692957
1031
0.0
1011
1.206463707341185
1021
-16.24093981692957
1031
0.0
1011
-3.793536292658814
1021
-11.24093981692957
1031
0.0
1002
}
  0
LINE
  5
65D1
330
1F
100
AcDbEntity
  8
zintek
  6
Continuous
 62
     7
100
AcDbLine
 10
70.27896897431168
 20
188.0050316261246
 30
0.0
 11
74.53321190999668
 21
189.2968739535484
 31
0.0
1001
AC_800
1000
ELEMENT_19
1002
{
1071
      789
1005
65D1
1003
0
1011
-3.793536292658814
1021
-16.24093981692957
1031
0.0
1011
1.206463707341185
1021
-16.24093981692957
1031
0.0
1011
-3.793536292658814
1021
-11.24093981692957
1031
0.0
1002
}
  0
LINE
  5
65D2
330
1F
100
AcDbEntity
  8
zintek
  6
Continuous
 62
     7
100
AcDbLine
 10
74.53321190999668
 20
189.2968739535484
 30
0.0
 11
74.49292975056898
 21
193.5247642588707
 31
0.0
1001
AC_800
1000
ELEMENT_19
1002
{
1071
      788
1005
65D2
1003
0
1011
-3.793536292658814
1021
-16.24093981692957
1031
0.0
1011
1.206463707341185
1021
-16.24093981692957
1031
0.0
1011
-3.793536292658814
1021
-11.24093981692957
1031
0.0
1002
}
  0
LINE
  5
65D3
330
1F
100
AcDbEntity
  8
zintek
  6
Continuous
 62
     7
100
AcDbLine
 10
37.9015712214507
 20
224.9253203955616
 30
0.0
 11
38.00869922689861
 21
223.0693199091674
 31
0.0
1001
AC_800
1000
ELEMENT_19
1002
{
1071
      787
1005
65D3
1003
0
1011
-3.793536292658814
1021
-16.24093981692957
1031
0.0
1011
1.206463707341185
1021
-16.24093981692957
1031
0.0
1011
-3.793536292658814
1021
-11.24093981692957
1031
0.0
1002
}
  0
LINE
  5
65D4
330
1F
100
AcDbEntity
  8
zintek
  6
Continuous
 62
     7
100
AcDbLine
 10
70.27896897431168
 20
188.0050316261246
 30
0.0
 11
70.21292641004868
 21
192.269882059657
 31
0.0
1001
AC_800
1000
ELEMENT_19
1002
{
1071
      786
1005
65D4
1003
0
1011
-3.793536292658814
1021
-16.24093981692957
1031
0.0
1011
1.206463707341185
1021
-16.24093981692957
1031
0.0
1011
-3.793536292658814
1021
-11.24093981692957
1031
0.0
1002
}
  0
LINE
  5
65D5
330
1F
100
AcDbEntity
  8
zintek
  6
Continuous
 62
     7
100
AcDbLine
 10
38.00869922689861
 20
223.0693199091674
 30
0.0
 11
70.27896897431168
 21
188.0050316261246
 31
0.0
1001
AC_800
1000
ELEMENT_19
1002
{
1071
      785
1005
65D5
1003
0
1011
-3.793536292658814
1021
-16.24093981692957
1031
0.0
1011
1.206463707341185
1021
-16.24093981692957
1031
0.0
1011
-3.793536292658814
1021
-11.24093981692957
1031
0.0
1002
}
  0
LINE
  5
65D6
330
1F
100
AcDbEntity
  8
zintek
  6
Continuous
 62
     7
100
AcDbLine
 10
136.8474790148247
 20
211.806902772856
 30
0.0
 11
139.8530830789924
 21
212.6881355051534
 31
0.0
1001
AC_800
1000
ELEMENT_19
1002
{
1071
      784
1005
65D6
1003
0
1011
-3.793536292658814
1021
-16.24093981692957
1031
0.0
1011
1.206463707341185
1021
-16.24093981692957
1031
0.0
1011
-3.793536292658814
1021
-11.24093981692957
1031
0.0
1002
}
  0
LINE
  5
65D7
330
1F
100
AcDbEntity
  8
zintek
  6
Continuous
 62
     7
100
AcDbLine
 10
136.5722222649493
 20
208.1356240530671
 30
0.0
 11
139.5654450473262
 21
209.0445453215845
 31
0.0
1001
AC_800
1000
ELEMENT_19
1002
{
1071
      783
1005
65D7
1003
0
1011
-3.793536292658814
1021
-16.24093981692957
1031
0.0
1011
1.206463707341185
1021
-16.24093981692957
1031
0.0
1011
-3.793536292658814
1021
-11.24093981692957
1031
0.0
1002
}
  0
LINE
  5
65D8
330
1F
100
AcDbEntity
  8
zintek
  6
Continuous
 62
     7
100
AcDbLine
 10
139.5654450473262
 20
209.0445453215845
 30
0.0
 11
139.8530830789924
 21
212.6881355051534
 31
0.0
1001
AC_800
1000
ELEMENT_19
1002
{
1071
      782
1005
65D8
1003
0
1011
-3.793536292658814
1021
-16.24093981692957
1031
0.0
1011
1.206463707341185
1021
-16.24093981692957
1031
0.0
1011
-3.793536292658814
1021
-11.24093981692957
1031
0.0
1002
}
  0
LINE
  5
65D9
330
1F
100
AcDbEntity
  8
zintek
  6
Continuous
 62
     7
100
AcDbLine
 10
136.5722222649493
 20
208.1356240530671
 30
0.0
 11
136.8474790148247
 21
211.806902772856
 31
0.0
1001
AC_800
1000
ELEMENT_19
1002
{
1071
      781
1005
65D9
1003
0
1011
-3.793536292658814
1021
-16.24093981692957
1031
0.0
1011
1.206463707341185
1021
-16.24093981692957
1031
0.0
1011
-3.793536292658814
1021
-11.24093981692957
1031
0.0
1002
}
  0
LINE
  5
65DA
330
1F
100
AcDbEntity
  8
zintek
  6
Continuous
 62
     7
100
AcDbLine
 10
132.4441809696495
 20
210.5158709920137
 30
0.0
 11
136.5722222649493
 21
208.1356240530671
 31
0.0
1001
AC_800
1000
ELEMENT_19
1002
{
1071
      780
1005
65DA
1003
0
1011
-3.793536292658814
1021
-16.24093981692957
1031
0.0
1011
1.206463707341185
1021
-16.24093981692957
1031
0.0
1011
-3.793536292658814
1021
-11.24093981692957
1031
0.0
1002
}
  0
LINE
  5
65DB
330
1F
100
AcDbEntity
  8
zintek
  6
Continuous
 62
     7
100
AcDbLine
 10
154.4568107409066
 20
179.501185710597
 30
0.0
 11
155.6037636712432
 21
190.606162475623
 31
0.0
1001
AC_800
1000
ELEMENT_19
1002
{
1071
      779
1005
65DB
1003
0
1011
-3.793536292658814
1021
-16.24093981692957
1031
0.0
1011
1.206463707341185
1021
-16.24093981692957
1031
0.0
1011
-3.793536292658814
1021
-11.24093981692957
1031
0.0
1002
}
  0
LINE
  5
65DC
330
1F
100
AcDbEntity
  8
zintek
  6
Continuous
 62
     7
100
AcDbLine
 10
154.4568107409066
 20
179.501185710597
 30
0.0
 11
147.6881393089582
 21
176.7369516964811
 31
0.0
1001
AC_800
1000
ELEMENT_19
1002
{
1071
      777
1005
65DC
1003
0
1011
-3.793536292658814
1021
-16.24093981692957
1031
0.0
1011
1.206463707341185
1021
-16.24093981692957
1031
0.0
1011
-3.793536292658814
1021
-11.24093981692957
1031
0.0
1002
}
  0
LINE
  5
65DD
330
1F
100
AcDbEntity
  8
zintek
  6
Continuous
 62
     7
100
AcDbLine
 10
148.7508766010538
 20
188.0324182624486
 30
0.0
 11
147.6881393089582
 21
176.7369516964811
 31
0.0
1001
AC_800
1000
ELEMENT_19
1002
{
1071
      776
1005
65DD
1003
0
1011
-3.793536292658814
1021
-16.24093981692957
1031
0.0
1011
1.206463707341185
1021
-16.24093981692957
1031
0.0
1011
-3.793536292658814
1021
-11.24093981692957
1031
0.0
1002
}
  0
LINE
  5
65DE
330
1F
100
AcDbEntity
  8
zintek
  6
Continuous
 62
     7
100
AcDbLine
 10
147.6881393089582
 20
176.7369516964811
 30
0.0
 11
137.6216644804305
 21
183.8526112702616
 31
0.0
1001
AC_800
1000
ELEMENT_19
1002
{
1071
      775
1005
65DE
1003
0
1011
-3.793536292658814
1021
-16.24093981692957
1031
0.0
1011
1.206463707341185
1021
-16.24093981692957
1031
0.0
1011
-3.793536292658814
1021
-11.24093981692957
1031
0.0
1002
}
  0
LINE
  5
65DF
330
1F
100
AcDbEntity
  8
zintek
  6
Continuous
 62
     7
100
AcDbLine
 10
122.3646142193971
 20
166.3951659984078
 30
0.0
 11
113.5454288144379
 21
162.7935297662049
 31
0.0
1001
AC_800
1000
ELEMENT_19
1002
{
1071
      773
1005
65DF
1003
0
1011
-3.793536292658814
1021
-16.24093981692957
1031
0.0
1011
1.206463707341185
1021
-16.24093981692957
1031
0.0
1011
-3.793536292658814
1021
-11.24093981692957
1031
0.0
1002
}
  0
LINE
  5
65E0
330
1F
100
AcDbEntity
  8
zintek
  6
Continuous
 62
     7
100
AcDbLine
 10
114.1150012122177
 20
175.0241951679762
 30
0.0
 11
113.5454288144379
 21
162.7935297662049
 31
0.0
1001
AC_800
1000
ELEMENT_19
1002
{
1071
      772
1005
65E0
1003
0
1011
-3.793536292658814
1021
-16.24093981692957
1031
0.0
1011
1.206463707341185
1021
-16.24093981692957
1031
0.0
1011
-3.793536292658814
1021
-11.24093981692957
1031
0.0
1002
}
  0
LINE
  5
65E1
330
1F
100
AcDbEntity
  8
zintek
  6
Continuous
 62
     7
100
AcDbLine
 10
113.5454288144379
 20
162.7935297662049
 30
0.0
 11
104.4686733548704
 21
171.401316190555
 31
0.0
1001
AC_800
1000
ELEMENT_19
1002
{
1071
      771
1005
65E1
1003
0
1011
-3.793536292658814
1021
-16.24093981692957
1031
0.0
1011
1.206463707341185
1021
-16.24093981692957
1031
0.0
1011
-3.793536292658814
1021
-11.24093981692957
1031
0.0
1002
}
  0
LINE
  5
65E2
330
1F
100
AcDbEntity
  8
zintek
  6
Continuous
 62
     7
100
AcDbLine
 10
123.0725199921474
 20
178.388377575787
 30
0.0
 11
122.3646142193971
 21
166.3951659984078
 31
0.0
1001
AC_800
1000
ELEMENT_19
1002
{
1071
      770
1005
65E2
1003
0
1011
-3.793536292658814
1021
-16.24093981692957
1031
0.0
1011
1.206463707341185
1021
-16.24093981692957
1031
0.0
1011
-3.793536292658814
1021
-11.24093981692957
1031
0.0
1002
}
  0
LINE
  5
65E3
330
1F
100
AcDbEntity
  8
zintek
  6
Continuous
 62
     7
100
AcDbLine
 10
32.16309676683471
 20
213.1413542824248
 30
0.0
 11
30.80558788399009
 21
212.8404787195475
 31
0.0
1001
AC_800
1000
ELEMENT_19
1002
{
1071
      768
1005
65E3
1003
0
1011
-3.793536292658814
1021
-16.24093981692957
1031
0.0
1011
1.206463707341185
1021
-16.24093981692957
1031
0.0
1011
-3.793536292658814
1021
-11.24093981692957
1031
0.0
1002
}
  0
LINE
  5
65E4
330
1F
100
AcDbEntity
  8
zintek
  6
Continuous
 62
     7
100
AcDbLine
 10
82.50293289903618
 20
150.1161936072379
 30
0.0
 11
71.57653043984942
 21
145.6539983842517
 31
0.0
1001
AC_800
1000
ELEMENT_19
1002
{
1071
      767
1005
65E4
1003
0
1011
-3.793536292658814
1021
-16.24093981692957
1031
0.0
1011
1.206463707341185
1021
-16.24093981692957
1031
0.0
1011
-3.793536292658814
1021
-11.24093981692957
1031
0.0
1002
}
  0
LINE
  5
65E5
330
1F
100
AcDbEntity
  8
zintek
  6
Continuous
 62
     7
100
AcDbLine
 10
71.38293362795582
 20
158.9752787717903
 30
0.0
 11
71.57653043984942
 21
145.6539983842517
 31
0.0
1001
AC_800
1000
ELEMENT_19
1002
{
1071
      766
1005
65E5
1003
0
1011
-3.793536292658814
1021
-16.24093981692957
1031
0.0
1011
1.206463707341185
1021
-16.24093981692957
1031
0.0
1011
-3.793536292658814
1021
-11.24093981692957
1031
0.0
1002
}
  0
LINE
  5
65E6
330
1F
100
AcDbEntity
  8
zintek
  6
Continuous
 62
     7
100
AcDbLine
 10
30.80558788399009
 20
212.8404787195475
 30
0.0
 11
71.38293362795582
 21
158.9752787717903
 31
0.0
1001
AC_800
1000
ELEMENT_19
1002
{
1071
      765
1005
65E6
1003
0
1011
-3.793536292658814
1021
-16.24093981692957
1031
0.0
1011
1.206463707341185
1021
-16.24093981692957
1031
0.0
1011
-3.793536292658814
1021
-11.24093981692957
1031
0.0
1002
}
  0
LINE
  5
65E7
330
1F
100
AcDbEntity
  8
zintek
  6
Continuous
 62
     7
100
AcDbLine
 10
31.44592583862055
 20
203.4565253652633
 30
0.0
 11
30.80558788399009
 21
212.8404787195475
 31
0.0
1001
AC_800
1000
ELEMENT_19
1002
{
1071
      764
1005
65E7
1003
0
1011
-3.793536292658814
1021
-16.24093981692957
1031
0.0
1011
1.206463707341185
1021
-16.24093981692957
1031
0.0
1011
-3.793536292658814
1021
-11.24093981692957
1031
0.0
1002
}
  0
LINE
  5
65E8
330
1F
100
AcDbEntity
  8
zintek
  6
Continuous
 62
     7
100
AcDbLine
 10
71.57653043984942
 20
145.6539983842517
 30
0.0
 11
31.44592583862055
 21
203.4565253652633
 31
0.0
1001
AC_800
1000
ELEMENT_19
1002
{
1071
      763
1005
65E8
1003
0
1011
-3.793536292658814
1021
-16.24093981692957
1031
0.0
1011
1.206463707341185
1021
-16.24093981692957
1031
0.0
1011
-3.793536292658814
1021
-11.24093981692957
1031
0.0
1002
}
  0
LINE
  5
65E9
330
1F
100
AcDbEntity
  8
zintek
  6
Continuous
 62
     7
100
AcDbLine
 10
82.52474276217929
 20
163.1598168343312
 30
0.0
 11
82.50293289903618
 21
150.1161936072379
 31
0.0
1001
AC_800
1000
ELEMENT_19
1002
{
1071
      762
1005
65E9
1003
0
1011
-3.793536292658814
1021
-16.24093981692957
1031
0.0
1011
1.206463707341185
1021
-16.24093981692957
1031
0.0
1011
-3.793536292658814
1021
-11.24093981692957
1031
0.0
1002
}
  0
LINE
  5
65EA
330
1F
100
AcDbEntity
  8
zintek
  6
Continuous
 62
     7
100
AcDbLine
 10
49.1087437504516
 20
214.5695095510598
 30
0.0
 11
52.39987690116641
 21
215.3252621222958
 31
0.0
1001
AC_800
1000
ELEMENT_19
1002
{
1071
     1212
1005
65EA
1003
0
1011
-3.793536292658814
1021
-16.24093981692957
1031
0.0
1011
1.206463707341185
1021
-16.24093981692957
1031
0.0
1011
-3.793536292658814
1021
-11.24093981692957
1031
0.0
1002
}
  0
LINE
  5
65EB
330
1F
100
AcDbEntity
  8
zintek
  6
Continuous
 62
     7
100
AcDbLine
 10
40.03743064053117
 20
224.0798203649898
 30
0.0
 11
42.9976668329025
 21
224.7053438917043
 31
0.0
1001
AC_800
1000
ELEMENT_19
1002
{
1071
     1207
1005
65EB
1003
0
1011
-3.793536292658814
1021
-16.24093981692957
1031
0.0
1011
1.206463707341185
1021
-16.24093981692957
1031
0.0
1011
-3.793536292658814
1021
-11.24093981692957
1031
0.0
1002
}
  0
LINE
  5
65EC
330
1F
100
AcDbEntity
  8
zintek
  6
Continuous
 62
     7
100
AcDbLine
 10
56.12164306199907
 20
231.4559972381649
 30
0.0
 11
93.57929896397218
 21
201.2403994698493
 31
0.0
1001
AC_800
1000
ELEMENT_19
1002
{
1071
      757
1005
65EC
1003
0
1011
-3.793536292658814
1021
-16.24093981692957
1031
0.0
1011
1.206463707341185
1021
-16.24093981692957
1031
0.0
1011
-3.793536292658814
1021
-11.24093981692957
1031
0.0
1002
}
  0
LINE
  5
65ED
330
1F
100
AcDbEntity
  8
zintek
  6
Continuous
 62
     7
100
AcDbLine
 10
48.67387785740596
 20
215.0254203718116
 30
0.0
 11
51.9470294519798
 21
215.7770437855003
 31
0.0
1001
AC_800
1000
ELEMENT_19
1002
{
1071
     1210
1005
65ED
1003
0
1011
-3.793536292658814
1021
-16.24093981692957
1031
0.0
1011
1.206463707341185
1021
-16.24093981692957
1031
0.0
1011
-3.793536292658814
1021
-11.24093981692957
1031
0.0
1002
}
  0
LINE
  5
65EE
330
1F
100
AcDbEntity
  8
zintek
  6
Continuous
 62
     7
100
AcDbLine
 10
39.68288955400118
 20
224.451519135427
 30
0.0
 11
42.64812897762829
 21
225.0540591022955
 31
0.0
1001
AC_800
1000
ELEMENT_19
1002
{
1071
      836
1005
65EE
1003
0
1011
-3.793536292658814
1021
-16.24093981692957
1031
0.0
1011
1.206463707341185
1021
-16.24093981692957
1031
0.0
1011
-3.793536292658814
1021
-11.24093981692957
1031
0.0
1002
}
  0
LINE
  5
65EF
330
1F
100
AcDbEntity
  8
zintek
  6
Continuous
 62
     7
100
AcDbLine
 10
56.06977285938103
 20
233.0165996333574
 30
0.0
 11
93.61378319198797
 21
203.3003032597345
 31
0.0
1001
AC_800
1000
ELEMENT_19
1002
{
1071
      754
1005
65EF
1003
0
1011
-3.793536292658814
1021
-16.24093981692957
1031
0.0
1011
1.206463707341185
1021
-16.24093981692957
1031
0.0
1011
-3.793536292658814
1021
-11.24093981692957
1031
0.0
1002
}
  0
LINE
  5
65F0
330
1F
100
AcDbEntity
  8
zintek
  6
Continuous
 62
     7
100
AcDbLine
 10
56.12164306199918
 20
231.4559972381649
 30
0.0
 11
56.06977285938103
 21
233.0165996333574
 31
0.0
1001
AC_800
1000
ELEMENT_19
1002
{
1071
      753
1005
65F0
1003
0
1011
-3.793536292658814
1021
-16.24093981692957
1031
0.0
1011
1.206463707341185
1021
-16.24093981692957
1031
0.0
1011
-3.793536292658814
1021
-11.24093981692957
1031
0.0
1002
}
  0
LINE
  5
65F1
330
1F
100
AcDbEntity
  8
zintek
  6
Continuous
 62
     7
100
AcDbLine
 10
93.57929896397218
 20
201.2403994698493
 30
0.0
 11
56.12164306199918
 21
231.4559972381649
 31
0.0
1001
AC_800
1000
ELEMENT_19
1002
{
1071
      752
1005
65F1
1003
0
1011
-3.793536292658814
1021
-16.24093981692957
1031
0.0
1011
1.206463707341185
1021
-16.24093981692957
1031
0.0
1011
-3.793536292658814
1021
-11.24093981692957
1031
0.0
1002
}
  0
LINE
  5
65F2
330
1F
100
AcDbEntity
  8
zintek
  6
Continuous
 62
     7
100
AcDbLine
 10
56.74790832478897
 20
233.1435682793585
 30
0.0
 11
94.46284628364969
 21
203.5400773546845
 31
0.0
1001
AC_800
1000
ELEMENT_19
1002
{
1071
      751
1005
65F2
1003
0
1011
-3.793536292658814
1021
-16.24093981692957
1031
0.0
1011
1.206463707341185
1021
-16.24093981692957
1031
0.0
1011
-3.793536292658814
1021
-11.24093981692957
1031
0.0
1002
}
  0
LINE
  5
65F3
330
1F
100
AcDbEntity
  8
zintek
  6
Continuous
 62
     7
100
AcDbLine
 10
56.06977285938103
 20
233.0165996333574
 30
0.0
 11
56.74790832478897
 21
233.1435682793585
 31
0.0
1001
AC_800
1000
ELEMENT_19
1002
{
1071
      750
1005
65F3
1003
0
1011
-3.793536292658814
1021
-16.24093981692957
1031
0.0
1011
1.206463707341185
1021
-16.24093981692957
1031
0.0
1011
-3.793536292658814
1021
-11.24093981692957
1031
0.0
1002
}
  0
LINE
  5
65F4
330
1F
100
AcDbEntity
  8
zintek
  6
Continuous
 62
     7
100
AcDbLine
 10
93.61378319198797
 20
203.3003032597345
 30
0.0
 11
56.06977285938103
 21
233.0165996333574
 31
0.0
1001
AC_800
1000
ELEMENT_19
1002
{
1071
      749
1005
65F4
1003
0
1011
-3.793536292658814
1021
-16.24093981692957
1031
0.0
1011
1.206463707341185
1021
-16.24093981692957
1031
0.0
1011
-3.793536292658814
1021
-11.24093981692957
1031
0.0
1002
}
  0
LINE
  5
65F5
330
1F
100
AcDbEntity
  8
zintek
  6
Continuous
 62
     7
100
AcDbLine
 10
94.38434569043455
 20
203.435844373724
 30
0.0
 11
93.6897337911281
 21
203.2395391297489
 31
0.0
1001
AC_800
1000
ELEMENT_19
1002
{
1071
      748
1005
65F5
1003
0
1011
-3.793536292658814
1021
-16.24093981692957
1031
0.0
1011
1.206463707341185
1021
-16.24093981692957
1031
0.0
1011
-3.793536292658814
1021
-11.24093981692957
1031
0.0
1002
}
  0
LINE
  5
65F6
330
1F
100
AcDbEntity
  8
zintek
  6
Continuous
 62
     7
100
AcDbLine
 10
39.55306680233741
 20
228.1418369837561
 30
0.0
 11
39.55791204371968
 21
228.2933360506821
 31
0.0
1001
AC_800
1000
ELEMENT_19
1002
{
1071
     1617
1005
65F6
1003
0
1011
-3.793536292658814
1021
-16.24093981692957
1031
0.0
1011
1.206463707341185
1021
-16.24093981692957
1031
0.0
1011
-3.793536292658814
1021
-11.24093981692957
1031
0.0
1002
}
  0
LINE
  5
65F7
330
1F
100
AcDbEntity
  8
zintek
  6
Continuous
 62
     7
100
AcDbLine
 10
94.46284628364969
 20
203.5400773546845
 30
0.0
 11
56.74790832478897
 21
233.1435682793585
 31
0.0
1001
AC_800
1000
ELEMENT_19
1002
{
1071
      746
1005
65F7
1003
0
1011
-3.793536292658814
1021
-16.24093981692957
1031
0.0
1011
1.206463707341185
1021
-16.24093981692957
1031
0.0
1011
-3.793536292658814
1021
-11.24093981692957
1031
0.0
1002
}
  0
LINE
  5
65F8
330
1F
100
AcDbEntity
  8
zintek
  6
Continuous
 62
     7
100
AcDbLine
 10
39.55791204371968
 20
228.2933360506822
 30
0.0
 11
72.6968744880225
 21
195.2323668504566
 31
0.0
1001
AC_800
1000
ELEMENT_19
1002
{
1071
     1616
1005
65F8
1003
0
1011
-3.793536292658814
1021
-16.24093981692957
1031
0.0
1011
1.206463707341185
1021
-16.24093981692957
1031
0.0
1011
-3.793536292658814
1021
-11.24093981692957
1031
0.0
1002
}
  0
LINE
  5
65F9
330
1F
100
AcDbEntity
  8
zintek
  6
Continuous
 62
     7
100
AcDbLine
 10
93.57929896397218
 20
201.2403994698493
 30
0.0
 11
72.6968744880225
 21
195.2323668504566
 31
0.0
1001
AC_800
1000
ELEMENT_19
1002
{
1071
      755
1005
65F9
1003
0
1011
-3.793536292658814
1021
-16.24093981692957
1031
0.0
1011
1.206463707341185
1021
-16.24093981692957
1031
0.0
1011
-3.793536292658814
1021
-11.24093981692957
1031
0.0
1002
}
  0
LINE
  5
65FA
330
1F
100
AcDbEntity
  8
zintek
  6
Continuous
 62
     7
100
AcDbLine
 10
94.24756821672975
 20
203.1858855270592
 30
0.0
 11
94.05084652670955
 21
203.34159370689
 31
0.0
1001
AC_800
1000
ELEMENT_19
1002
{
1071
      739
1005
65FA
1003
0
1011
-3.793536292658814
1021
-16.24093981692957
1031
0.0
1011
1.206463707341185
1021
-16.24093981692957
1031
0.0
1011
-3.793536292658814
1021
-11.24093981692957
1031
0.0
1002
}
  0
LINE
  5
65FB
330
1F
100
AcDbEntity
  8
zintek
  6
Continuous
 62
     7
100
AcDbLine
 10
94.37629791715654
 20
202.9834904240849
 30
0.0
 11
93.96092011485114
 21
202.8661883795277
 31
0.0
1001
AC_800
1000
ELEMENT_19
1002
{
1071
     1362
1005
65FB
1003
0
1011
-3.793536292658814
1021
-16.24093981692957
1031
0.0
1011
1.206463707341185
1021
-16.24093981692957
1031
0.0
1011
-3.793536292658814
1021
-11.24093981692957
1031
0.0
1002
}
  0
LINE
  5
65FC
330
1F
100
AcDbEntity
  8
zintek
  6
Continuous
 62
     7
100
AcDbLine
 10
93.656448187342
 20
201.263655552788
 30
0.0
 11
93.73213858290773
 21
201.2026460836029
 31
0.0
1001
AC_800
1000
ELEMENT_19
1002
{
1071
      740
1005
65FC
1003
0
1011
-3.793536292658814
1021
-16.24093981692957
1031
0.0
1011
1.206463707341185
1021
-16.24093981692957
1031
0.0
1011
-3.793536292658814
1021
-11.24093981692957
1031
0.0
1002
}
  0
LINE
  5
65FD
330
1F
100
AcDbEntity
  8
zintek
  6
Continuous
 62
     7
100
AcDbLine
 10
93.83927748292126
 20
202.9882686624325
 30
0.0
 11
94.24774920470019
 21
203.1038813454241
 31
0.0
1001
AC_800
1000
ELEMENT_19
1002
{
1071
      744
1005
65FD
1003
0
1011
-3.793536292658814
1021
-16.24093981692957
1031
0.0
1011
1.206463707341185
1021
-16.24093981692957
1031
0.0
1011
-3.793536292658814
1021
-11.24093981692957
1031
0.0
1002
}
  0
LINE
  5
65FE
330
1F
100
AcDbEntity
  8
zintek
  6
Continuous
 62
     7
100
AcDbLine
 10
40.26295751340405
 20
227.4336170153867
 30
0.0
 11
37.73504700772838
 21
226.9227372769993
 31
0.0
1001
AC_800
1000
ELEMENT_19
1002
{
1071
     1618
1005
65FE
1003
0
1011
-3.793536292658814
1021
-16.24093981692957
1031
0.0
1011
1.206463707341185
1021
-16.24093981692957
1031
0.0
1011
-3.793536292658814
1021
-11.24093981692957
1031
0.0
1002
}
  0
LINE
  5
65FF
330
1F
100
AcDbEntity
  8
zintek
  6
Continuous
 62
     7
100
AcDbLine
 10
42.85854605613486
 20
221.122179710406
 30
0.0
 11
45.9150015922039
 21
221.7948751410272
 31
0.0
1001
AC_800
1000
ELEMENT_19
1002
{
1071
     1209
1005
65FF
1003
0
1011
-3.793536292658814
1021
-16.24093981692957
1031
0.0
1011
1.206463707341185
1021
-16.24093981692957
1031
0.0
1011
-3.793536292658814
1021
-11.24093981692957
1031
0.0
1002
}
  0
LINE
  5
6600
330
1F
100
AcDbEntity
  8
zintek
  6
Continuous
 62
     7
100
AcDbLine
 10
72.6968744880225
 20
195.2323668504566
 30
0.0
 11
72.64230848055627
 21
195.1304715307474
 31
0.0
1001
AC_800
1000
ELEMENT_19
1002
{
1071
     1615
1005
6600
1003
0
1011
-3.793536292658814
1021
-16.24093981692957
1031
0.0
1011
1.206463707341185
1021
-16.24093981692957
1031
0.0
1011
-3.793536292658814
1021
-11.24093981692957
1031
0.0
1002
}
  0
LINE
  5
6601
330
1F
100
AcDbEntity
  8
zintek
  6
Continuous
 62
     7
100
AcDbLine
 10
45.46999195042952
 20
218.3843553372903
 30
0.0
 11
48.63527609529348
 21
219.0810028611101
 31
0.0
1001
AC_800
1000
ELEMENT_19
1002
{
1071
     1208
1005
6601
1003
0
1011
-3.793536292658814
1021
-16.24093981692957
1031
0.0
1011
1.206463707341185
1021
-16.24093981692957
1031
0.0
1011
-3.793536292658814
1021
-11.24093981692957
1031
0.0
1002
}
  0
LINE
  5
6602
330
1F
100
AcDbEntity
  8
zintek
  6
Continuous
 62
     7
100
AcDbLine
 10
93.73213858290773
 20
201.2026460836031
 30
0.0
 11
93.656448187342
 21
201.2636555527882
 31
0.0
1001
AC_800
1000
ELEMENT_19
1002
{
1071
      734
1005
6602
1003
0
1011
-3.793536292658814
1021
-16.24093981692957
1031
0.0
1011
1.206463707341185
1021
-16.24093981692957
1031
0.0
1011
-3.793536292658814
1021
-11.24093981692957
1031
0.0
1002
}
  0
LINE
  5
6603
330
1F
100
AcDbEntity
  8
zintek
  6
Continuous
 62
     7
100
AcDbLine
 10
45.87529055751651
 20
217.9594426836155
 30
0.0
 11
49.03272152314844
 21
218.6844928294165
 31
0.0
1001
AC_800
1000
ELEMENT_19
1002
{
1071
     1211
1005
6603
1003
0
1011
-3.793536292658814
1021
-16.24093981692957
1031
0.0
1011
1.206463707341185
1021
-16.24093981692957
1031
0.0
1011
-3.793536292658814
1021
-11.24093981692957
1031
0.0
1002
}
  0
LINE
  5
6604
330
1F
100
AcDbEntity
  8
zintek
  6
Continuous
 62
     7
100
AcDbLine
 10
135.2507234797224
 20
213.2295857865784
 30
0.0
 11
127.3253576842396
 21
210.9493976659549
 31
0.0
1001
AC_800
1000
ELEMENT_19
1002
{
1071
     1602
1005
6604
1003
0
1011
-3.793536292658814
1021
-16.24093981692957
1031
0.0
1011
1.206463707341185
1021
-16.24093981692957
1031
0.0
1011
-3.793536292658814
1021
-11.24093981692957
1031
0.0
1002
}
  0
LINE
  5
6605
330
1F
100
AcDbEntity
  8
zintek
  6
Continuous
 62
     7
100
AcDbLine
 10
85.68066405707218
 20
237.1036360448216
 30
0.0
 11
95.79742054353806
 21
239.0352245289663
 31
0.0
1001
AC_800
1000
ELEMENT_19
1002
{
1071
     1610
1005
6605
1003
0
1011
-3.793536292658814
1021
-16.24093981692957
1031
0.0
1011
1.206463707341185
1021
-16.24093981692957
1031
0.0
1011
-3.793536292658814
1021
-11.24093981692957
1031
0.0
1002
}
  0
LINE
  5
6606
330
1F
100
AcDbEntity
  8
zintek
  6
Continuous
 62
     7
100
AcDbLine
 10
80.00061064379645
 20
106.9706411996633
 30
0.0
 11
79.05187937335904
 21
106.9706411996633
 31
0.0
1001
AC_800
1000
ELEMENT_19
1002
{
1071
     1308
1005
6606
1003
0
1011
-4.093104888850689
1021
-27.96458517387001
1031
0.0
1011
0.9068951111493106
1021
-27.96458517387001
1031
0.0
1011
-4.093104888850689
1021
-22.96458517387001
1031
0.0
1002
}
  0
LINE
  5
6607
330
1F
100
AcDbEntity
  8
zintek
  6
Continuous
 62
     7
100
AcDbLine
 10
39.55791204371968
 20
228.2933360506822
 30
0.0
 11
56.12164306199907
 21
231.4559972381649
 31
0.0
1001
AC_800
1000
ELEMENT_19
1002
{
1071
      756
1005
6607
1003
0
1011
-3.793536292658814
1021
-16.24093981692957
1031
0.0
1011
1.206463707341185
1021
-16.24093981692957
1031
0.0
1011
-3.793536292658814
1021
-11.24093981692957
1031
0.0
1002
}
  0
LINE
  5
6608
330
1F
100
AcDbEntity
  8
zintek
  6
Continuous
 62
     7
100
AcDbLine
 10
141.578223668144
 20
214.9784595232952
 30
0.0
 11
141.5841629708834
 21
215.0517645809837
 31
0.0
1001
AC_800
1000
ELEMENT_19
1002
{
1071
      718
1005
6608
1003
0
1011
-3.793536292658814
1021
-16.24093981692957
1031
0.0
1011
1.206463707341185
1021
-16.24093981692957
1031
0.0
1011
-3.793536292658814
1021
-11.24093981692957
1031
0.0
1002
}
  0
LINE
  5
6609
330
1F
100
AcDbEntity
  8
zintek
  6
Continuous
 62
     7
100
AcDbLine
 10
141.5841629708834
 20
215.0517645809837
 30
0.0
 11
95.79742054353806
 21
239.0352245289663
 31
0.0
1001
AC_800
1000
ELEMENT_19
1002
{
1071
      717
1005
6609
1003
0
1011
-3.793536292658814
1021
-16.24093981692957
1031
0.0
1011
1.206463707341185
1021
-16.24093981692957
1031
0.0
1011
-3.793536292658814
1021
-11.24093981692957
1031
0.0
1002
}
  0
LINE
  5
660A
330
1F
100
AcDbEntity
  8
zintek
  6
Continuous
 62
     7
100
AcDbLine
 10
42.47989864017262
 20
221.5191514135163
 30
0.0
 11
45.54266084706137
 21
222.1663395744064
 31
0.0
1001
AC_800
1000
ELEMENT_19
1002
{
1071
     1206
1005
660A
1003
0
1011
-3.793536292658814
1021
-16.24093981692957
1031
0.0
1011
1.206463707341185
1021
-16.24093981692957
1031
0.0
1011
-3.793536292658814
1021
-11.24093981692957
1031
0.0
1002
}
  0
LINE
  5
660B
330
1F
100
AcDbEntity
  8
zintek
  6
Continuous
 62
     7
100
AcDbLine
 10
141.5841629708834
 20
215.0517645809837
 30
0.0
 11
135.2507234797224
 21
213.2295857865784
 31
0.0
1001
AC_800
1000
ELEMENT_19
1002
{
1071
      715
1005
660B
1003
0
1011
-3.793536292658814
1021
-16.24093981692957
1031
0.0
1011
1.206463707341185
1021
-16.24093981692957
1031
0.0
1011
-3.793536292658814
1021
-11.24093981692957
1031
0.0
1002
}
  0
LINE
  5
660C
330
1F
100
AcDbEntity
  8
zintek
  6
Continuous
 62
     7
100
AcDbLine
 10
64.75501754070655
 20
198.1660489911498
 30
0.0
 11
68.66000254314338
 21
199.1034050275026
 31
0.0
1001
AC_800
1000
ELEMENT_19
1002
{
1071
     1622
1005
660C
1003
0
1011
-3.793536292658814
1021
-16.24093981692957
1031
0.0
1011
1.206463707341185
1021
-16.24093981692957
1031
0.0
1011
-3.793536292658814
1021
-11.24093981692957
1031
0.0
1002
}
  0
LINE
  5
660D
330
1F
100
AcDbEntity
  8
zintek
  6
Continuous
 62
     7
100
AcDbLine
 10
68.91123991565473
 20
191.8882320746424
 30
0.0
 11
68.7521202554729
 21
193.9755102331988
 31
0.0
1001
AC_800
1000
ELEMENT_19
1002
{
1071
      939
1005
660D
1003
0
1011
-3.793536292658814
1021
-16.24093981692957
1031
0.0
1011
1.206463707341185
1021
-16.24093981692957
1031
0.0
1011
-3.793536292658814
1021
-11.24093981692957
1031
0.0
1002
}
  0
LINE
  5
660E
330
1F
100
AcDbEntity
  8
zintek
  6
Continuous
 62
     7
100
AcDbLine
 10
64.1624553116265
 20
198.7872877144592
 30
0.0
 11
68.04314411223038
 21
199.7188116691435
 31
0.0
1001
AC_800
1000
ELEMENT_19
1002
{
1071
     1621
1005
660E
1003
0
1011
-3.793536292658814
1021
-16.24093981692957
1031
0.0
1011
1.206463707341185
1021
-16.24093981692957
1031
0.0
1011
-3.793536292658814
1021
-11.24093981692957
1031
0.0
1002
}
  0
LINE
  5
660F
330
1F
100
AcDbEntity
  8
zintek
  6
Continuous
 62
     7
100
AcDbLine
 10
60.37106544103926
 20
202.7621583477571
 30
0.0
 11
64.09016462802686
 21
203.6548941893908
 31
0.0
1001
AC_800
1000
ELEMENT_19
1002
{
1071
     1620
1005
660F
1003
0
1011
-3.793536292658814
1021
-16.24093981692957
1031
0.0
1011
1.206463707341185
1021
-16.24093981692957
1031
0.0
1011
-3.793536292658814
1021
-11.24093981692957
1031
0.0
1002
}
  0
LINE
  5
6610
330
1F
100
AcDbEntity
  8
zintek
  6
Continuous
 62
     7
100
AcDbLine
 10
39.76670900451899
 20
222.9382394538865
 30
0.0
 11
40.09647335979287
 21
223.0052479396491
 31
0.0
1001
AC_800
1000
ELEMENT_19
1002
{
1071
     1205
1005
6610
1003
0
1011
-3.793536292658814
1021
-16.24093981692957
1031
0.0
1011
1.206463707341185
1021
-16.24093981692957
1031
0.0
1011
-3.793536292658814
1021
-11.24093981692957
1031
0.0
1002
}
  0
LINE
  5
6611
330
1F
100
AcDbEntity
  8
zintek
  6
Continuous
 62
     7
100
AcDbLine
 10
69.17759475197562
 20
194.0986105228241
 30
0.0
 11
141.5782233580006
 21
214.9784556953894
 31
0.0
1001
AC_800
1000
ELEMENT_19
1002
{
1071
      937
1005
6611
1003
0
1011
-3.793536292658814
1021
-16.24093981692957
1031
0.0
1011
1.206463707341185
1021
-16.24093981692957
1031
0.0
1011
-3.793536292658814
1021
-11.24093981692957
1031
0.0
1002
}
  0
LINE
  5
6612
330
1F
100
AcDbEntity
  8
zintek
  6
Continuous
 62
     7
100
AcDbLine
 10
68.75638486736995
 20
193.9710392394023
 30
0.0
 11
64.75501754070655
 21
198.1660489911498
 31
0.0
1001
AC_800
1000
ELEMENT_19
1002
{
1071
      941
1005
6612
1003
0
1011
-3.793536292658814
1021
-16.24093981692957
1031
0.0
1011
1.206463707341185
1021
-16.24093981692957
1031
0.0
1011
-3.793536292658814
1021
-11.24093981692957
1031
0.0
1002
}
  0
LINE
  5
6613
330
1F
100
AcDbEntity
  8
zintek
  6
Continuous
 62
     7
100
AcDbLine
 10
37.39351277417433
 20
226.8516881608503
 30
0.0
 11
37.73504700772838
 21
226.9227372769993
 31
0.0
1001
AC_800
1000
ELEMENT_19
1002
{
1071
      839
1005
6613
1003
0
1011
-3.793536292658814
1021
-16.24093981692957
1031
0.0
1011
1.206463707341185
1021
-16.24093981692957
1031
0.0
1011
-3.793536292658814
1021
-11.24093981692957
1031
0.0
1002
}
  0
LINE
  5
6614
330
1F
100
AcDbEntity
  8
zintek
  6
Continuous
 62
   120
100
AcDbLine
 10
139.4564736403922
 20
199.8089253217684
 30
0.0
 11
139.3974729053173
 21
203.4310924679735
 31
0.0
1001
AC_800
1000
ELEMENT_19
1002
{
1071
     1648
1005
6614
1003
0
1011
-3.793536292658814
1021
-16.24093981692957
1031
0.0
1011
1.206463707341185
1021
-16.24093981692957
1031
0.0
1011
-3.793536292658814
1021
-11.24093981692957
1031
0.0
1002
}
  0
MTEXT
  5
6615
330
1F
100
AcDbEntity
  8
zintek
370
     0
100
AcDbMText
 10
118.5066326905499
 20
247.063708491901
 30
0.0
 40
2.2
 41
19.02
 71
     4
 72
     1
  1
Rivestimento in zintek®
  7
Architettonico
 73
     1
 44
1.0
1001
AC_800
1000
ELEMENT_15
1002
{
1071
     1227
1005
0
1003
Blocchi di Testo
1011
-14.46360113934372
1021
-5.502738184819605
1031
0.0
1011
-9.463601139343722
1021
-5.502738184819605
1031
0.0
1011
-14.46360113934372
1021
-0.5027381848196058
1031
0.0
1002
}
1001
ACAD
1000
MTEXTBEGIN
1070
    73
1070
     1
1070
    44
1040
1.0
1070
    74
1070
     0
1000
MTEXTEND
  0
MTEXT
  5
6616
330
1F
100
AcDbEntity
  8
zintek
370
     0
100
AcDbMText
 10
141.6377488935721
 20
236.4826988819269
 30
0.0
 40
2.2
 41
47.18257299687346
 71
     4
 72
     1
  1
Tavolato in legno grezzo da 24 mm\Pdistanziato di circa 5 mm per la ventilazione
  7
Architettonico
 73
     1
 44
1.0
1001
AC_800
1000
ELEMENT_15
1002
{
1071
     2381
1005
0
1003
Blocchi di Testo
1011
-191.2478861175642
1021
-25.26303896248206
1031
0.0
1011
-186.2478861175642
1021
-25.26303896248206
1031
0.0
1011
-191.2478861175642
1021
-20.26303896248206
1031
0.0
1002
}
1001
ACAD
1000
MTEXTBEGIN
1070
    73
1070
     1
1070
    44
1040
1.0
1070
    74
1070
     0
1000
MTEXTEND
  0
MTEXT
  5
6617
330
1F
100
AcDbEntity
  8
zintek
370
     0
100
AcDbMText
 10
159.9400993870152
 20
214.161913579908
 30
0.0
 40
2.2
 41
26.81158342231118
 71
     4
 72
     1
  1
Guaina traspirante\Pe impermeabile
  7
Architettonico
 73
     1
 44
1.0
1001
AC_800
1000
ELEMENT_15
1002
{
1071
     1233
1005
0
1003
Blocchi di Testo
1011
-0.8602473589729697
1021
-11.81104813633581
1031
0.0
1011
4.13975264102703
1021
-11.81104813633581
1031
0.0
1011
-0.8602473589729697
1021
-6.811048136335813
1031
0.0
1002
}
1001
ACAD
1000
MTEXTBEGIN
1070
    73
1070
     1
1070
    44
1040
1.0
1070
    74
1070
     0
1000
MTEXTEND
  0
MTEXT
  5
6618
330
1F
100
AcDbEntity
  8
zintek
370
     0
100
AcDbMText
 10
111.2996070834989
 20
129.1953224329743
 30
0.0
 40
2.2
 41
26.81158342231118
 71
     4
 72
     1
  1
Rivestimento in zintek®
  7
Architettonico
 73
     1
 44
1.0
1001
AC_800
1000
ELEMENT_15
1002
{
1071
     1227
1005
0
1003
Blocchi di Testo
1011
-21.67062674639476
1021
-123.3711242437463
1031
0.0
1011
-16.67062674639476
1021
-123.3711242437463
1031
0.0
1011
-21.67062674639476
1021
-118.3711242437463
1031
0.0
1002
}
1001
ACAD
1000
MTEXTBEGIN
1070
    73
1070
     1
1070
    44
1040
1.0
1070
    74
1070
     0
1000
MTEXTEND
  0
MTEXT
  5
6619
330
1F
100
AcDbEntity
  8
zintek
370
     0
100
AcDbMText
 10
146.4190331609617
 20
104.5735632403701
 30
0.0
 40
2.2
 41
26.81158342231118
 71
     4
 72
     1
  1
{\fArial|b0|i0|c0|p38;Listelli in legno di abete}
  7
Architettonico
 73
     1
 44
1.0
1001
AC_800
1000
ELEMENT_15
1002
{
1071
     1232
1005
6432
1003
Blocchi di Testo
1011
-8.827708226319487
1021
-135.9690500846118
1031
0.0
1011
-3.827708226319487
1021
-135.9690500846118
1031
0.0
1011
-8.827708226319487
1021
-130.9690500846118
1031
0.0
1002
}
1001
ACAD
1000
MTEXTBEGIN
1070
    73
1070
     1
1070
    44
1040
1.0
1070
    74
1070
     0
1000
MTEXTEND
  0
MTEXT
  5
661A
330
1F
100
AcDbEntity
  8
zintek
370
     0
100
AcDbMText
 10
146.0301890726301
 20
94.10789925763159
 30
0.0
 40
2.2
 41
26.81158342231118
 71
     4
 72
     1
  1
Guaina traspirante\Pe impermeabile
  7
Architettonico
 73
     1
 44
1.0
1001
AC_800
1000
ELEMENT_15
1002
{
1071
     1233
1005
0
1003
Blocchi di Testo
1011
-14.52811019370881
1021
-130.4257099434075
1031
0.0
1011
-9.528110193708812
1021
-130.4257099434075
1031
0.0
1011
-14.52811019370881
1021
-125.4257099434075
1031
0.0
1002
}
1001
ACAD
1000
MTEXTBEGIN
1070
    73
1070
     1
1070
    44
1040
1.0
1070
    74
1070
     0
1000
MTEXTEND
  0
LINE
  5
661B
330
1F
100
AcDbEntity
  8
zintek
  6
ACAD_ISO02W100
 62
     1
 48
0.3
370
    30
100
AcDbLine
 10
51.17453465372841
 20
79.16130560725156
 30
0.0
 11
133.7392289738832
 21
79.16130560725156
 31
0.0
  0
LINE
  5
661C
330
1F
100
AcDbEntity
  8
zintek
  6
ACAD_ISO02W100
 62
     4
 48
0.3
370
    30
100
AcDbLine
 10
133.7392289738832
 20
93.33630560725159
 30
0.0
 11
51.17453465372841
 21
93.33630560725159
 31
0.0
  0
LINE
  5
661D
330
1F
100
AcDbEntity
  8
zintek
  6
Continuous
 62
     7
100
AcDbLine
 10
62.64953465372849
 20
93.67380560725157
 30
0.0
 11
55.89953465372855
 21
93.67380560725157
 31
0.0
1001
AC_800
1000
ELEMENT_19
1002
{
1071
     1034
1005
651B
1003
0
1011
-4.093104888850689
1021
-27.96458517387001
1031
0.0
1011
0.9068951111493106
1021
-27.96458517387001
1031
0.0
1011
-4.093104888850689
1021
-22.96458517387001
1031
0.0
1002
}
  0
LINE
  5
661E
330
1F
100
AcDbEntity
  8
zintek
  6
ISOLAMENTO
 62
   120
 48
8.0
370
     0
100
AcDbLine
 10
133.7392289738832
 20
82.87380560725159
 30
0.0
 11
51.17453465372841
 21
82.87380560725159
 31
0.0
  0
LINE
  5
661F
330
1F
100
AcDbEntity
  8
zintek
  6
ISOLAMENTO
 62
   120
 48
8.0
370
     0
100
AcDbLine
 10
51.17453465372853
 20
89.62380560725156
 30
0.0
 11
133.7392289738832
 21
89.62380560725156
 31
0.0
  0
LINE
  5
6620
330
1F
100
AcDbEntity
  8
zintek
370
     0
100
AcDbLine
 10
138.6588673018704
 20
118.4890098665139
 30
0.0
 11
123.5950168147186
 21
102.0642209757628
 31
0.0
1001
AC_800
1000
ELEMENT_19
1002
{
1071
     1340
1005
6620
1003
Linee
1011
-4.093104888850689
1021
-27.96458517387001
1031
0.0
1011
0.9068951111493106
1021
-27.96458517387001
1031
0.0
1011
-4.093104888850689
1021
-22.96458517387001
1031
0.0
1002
}
  0
LINE
  5
6621
330
1F
100
AcDbEntity
  8
zintek
370
     0
100
AcDbLine
 10
107.869088569989
 20
104.1838126574915
 30
0.0
 11
115.1977981535869
 21
124.1241147885647
 31
0.0
1001
AC_800
1000
ELEMENT_19
1002
{
1071
     1330
1005
6621
1003
Linee
1011
-6.265956887971356
1021
-20.81598231014928
1031
0.0
1011
-1.265956887971356
1021
-20.81598231014928
1031
0.0
1011
-6.265956887971356
1021
-15.81598231014928
1031
0.0
1002
}
  0
LINE
  5
6622
330
1F
100
AcDbEntity
  8
zintek
370
     0
100
AcDbLine
 10
95.1903683675116
 20
97.55647715475241
 30
0.0
 11
84.85502520226907
 21
118.842158407101
 31
0.0
1001
AC_800
1000
ELEMENT_19
1002
{
1071
     1331
1005
6622
1003
Linee
1011
19.9870152200134
1021
-21.55691410566229
1031
0.0
1011
24.9870152200134
1021
-21.55691410566229
1031
0.0
1011
19.9870152200134
1021
-16.55691410566229
1031
0.0
1002
}
  0
LINE
  5
6623
330
1F
100
AcDbEntity
  8
zintek
370
     0
100
AcDbLine
 10
144.6979607544477
 20
48.98599034167495
 30
0.0
 11
127.4816208629576
 21
61.94712207111627
 31
0.0
1001
AC_800
1000
ELEMENT_19
1002
{
1071
     1341
1005
6623
1003
Linee
1011
-2.195859428942753
1021
-34.272300554586
1031
0.0
1011
2.804140571057246
1021
-34.272300554586
1031
0.0
1011
-2.195859428942753
1021
-29.272300554586
1031
0.0
1002
}
  0
LINE
  5
6624
330
1F
100
AcDbEntity
  8
zintek
370
     0
100
AcDbLine
 10
121.1140037785727
 20
77.22436215308809
 30
0.0
 11
146.0066881241283
 21
61.41245647458396
 31
0.0
1001
AC_800
1000
ELEMENT_19
1002
{
1071
     1262
1005
6624
1003
Linee
1011
-4.093104888850689
1021
-27.96458517387001
1031
0.0
1011
0.9068951111493106
1021
-27.96458517387001
1031
0.0
1011
-4.093104888850689
1021
-22.96458517387001
1031
0.0
1002
}
  0
LINE
  5
6625
330
1F
100
AcDbEntity
  8
zintek
370
     0
100
AcDbLine
 10
133.7392289738832
 20
79.16130560725156
 30
0.0
 11
146.2248109200248
 21
74.49294744296884
 31
0.0
1001
AC_800
1000
ELEMENT_19
1002
{
1071
     1261
1005
6625
1003
Linee
1011
-4.093104888850689
1021
-27.96458517387001
1031
0.0
1011
0.9068951111493106
1021
-27.96458517387001
1031
0.0
1011
-4.093104888850689
1021
-22.96458517387001
1031
0.0
1002
}
  0
LINE
  5
6626
330
1F
100
AcDbEntity
  8
zintek
370
     0
100
AcDbLine
 10
127.0411781326526
 20
96.34867651988905
 30
0.0
 11
144.8213513637594
 21
103.8891976327303
 31
0.0
1001
AC_800
1000
ELEMENT_19
1002
{
1071
     1257
1005
6626
1003
Linee
1011
-4.093104888850689
1021
-27.96458517387001
1031
0.0
1011
0.9068951111493106
1021
-27.96458517387001
1031
0.0
1011
-4.093104888850689
1021
-22.96458517387001
1031
0.0
1002
}
  0
LINE
  5
6627
330
1F
100
AcDbEntity
  8
zintek
370
     0
100
AcDbLine
 10
133.7392289738832
 20
86.24880560725165
 30
0.0
 11
145.3485621134128
 21
84.64962812884825
 31
0.0
1001
AC_800
1000
ELEMENT_19
1002
{
1071
     1259
1005
6627
1003
Linee
1011
-4.093104888850689
1021
-27.96458517387001
1031
0.0
1011
0.9068951111493106
1021
-27.96458517387001
1031
0.0
1011
-4.093104888850689
1021
-22.96458517387001
1031
0.0
1002
}
  0
MTEXT
  5
6628
330
1F
100
AcDbEntity
  8
zintek
370
     0
100
AcDbMText
 10
139.4577082004715
 20
118.3749482506026
 30
0.0
 40
2.2
 41
49.75550609737571
 71
     4
 72
     1
  1
Tavolato in legno grezzo da 24 mm\Pdistanziato di circa 5 mm per la ventilazione
  7
Architettonico
 73
     1
 44
1.0
1001
AC_800
1000
ELEMENT_15
1002
{
1071
     2381
1005
0
1003
Blocchi di Testo
1011
-191.5276375286507
1021
-146.8251679767598
1031
0.0
1011
-186.5276375286507
1021
-146.8251679767598
1031
0.0
1011
-191.5276375286507
1021
-141.8251679767598
1031
0.0
1002
}
1001
ACAD
1000
MTEXTBEGIN
1070
    73
1070
     1
1070
    44
1040
1.0
1070
    74
1070
     0
1000
MTEXTEND
  0
LINE
  5
6629
330
1F
100
AcDbEntity
  8
zintek
  6
Continuous
 62
     7
100
AcDbLine
 10
48.48902374615102
 20
198.7673629810421
 30
0.0
 11
48.37375495139844
 21
205.8439331424893
 31
0.0
1001
AC_800
1000
ELEMENT_19
1002
{
1071
     1645
1005
646C
1003
0
1011
-2.197579820826035
1021
-18.19756227341057
1031
0.0
1011
2.802420179173964
1021
-18.19756227341057
1031
0.0
1011
-2.197579820826035
1021
-13.19756227341057
1031
0.0
1002
}
  0
LINE
  5
662A
330
1F
100
AcDbEntity
  8
zintek
  6
Continuous
 62
     7
100
AcDbLine
 10
46.77978432032296
 20
207.6786410645073
 30
0.0
 11
48.30043296340386
 21
208.0455191070753
 31
0.0
  0
LINE
  5
662B
330
1F
100
AcDbEntity
  8
zintek
  6
Continuous
 62
     7
100
AcDbLine
 10
49.91524142236477
 20
206.2238071266759
 30
0.0
 11
48.37375495139844
 21
205.8439331424893
 31
0.0
  0
LINE
  5
662C
330
1F
100
AcDbEntity
  8
zintek
  6
Continuous
 62
   120
100
AcDbLine
 10
48.43144632471939
 20
202.3021502003514
 30
0.0
 11
69.88597251906515
 21
176.8061898273135
 31
0.0
1001
AC_800
1000
ELEMENT_19
1002
{
1071
     1642
1005
6470
1003
0
1011
-3.793536292658814
1021
-16.24093981692957
1031
0.0
1011
1.206463707341185
1021
-16.24093981692957
1031
0.0
1011
-3.793536292658814
1021
-11.24093981692957
1031
0.0
1002
}
  0
LINE
  5
662D
330
1F
100
AcDbEntity
  8
zintek
  6
Continuous
 62
   120
100
AcDbLine
 10
48.37375495139844
 20
205.8439331424893
 30
0.0
 11
69.81498189619492
 21
181.1644389495113
 31
0.0
1001
AC_800
1000
ELEMENT_19
1002
{
1071
      948
1005
654C
1003
0
1011
-3.793536292658814
1021
-16.24093981692957
1031
0.0
1011
1.206463707341185
1021
-16.24093981692957
1031
0.0
1011
-3.793536292658814
1021
-11.24093981692957
1031
0.0
1002
}
  0
LINE
  5
662E
330
1F
100
AcDbEntity
  8
zintek
  6
Continuous
 62
     7
100
AcDbLine
 10
48.37375495139844
 20
205.8439331424893
 30
0.0
 11
46.77978432032296
 21
207.6786410645072
 31
0.0
  0
LINE
  5
662F
330
1F
100
AcDbEntity
  8
zintek
  6
Continuous
 62
   120
100
AcDbLine
 10
69.88597251906515
 20
176.8061898273135
 30
0.0
 11
69.81498189619492
 21
181.1644389495113
 31
0.0
  0
LINE
  5
6630
330
1F
100
AcDbEntity
  8
zintek
  6
ISOLAMENTO
 62
   120
 48
4.299999999999999
370
     0
100
AcDbLine
 10
70.57380173038558
 20
179.2205881943675
 30
0.0
 11
146.2787329883506
 21
203.8449258827588
 31
0.0
  0
LINE
  5
6631
330
1F
100
AcDbEntity
  8
zintek
  6
ISOLAMENTO
 62
   120
 48
4.299999999999999
370
     0
100
AcDbLine
 10
145.8681740744848
 20
200.1460749433507
 30
0.0
 11
70.64258821413523
 21
174.8693704162132
 31
0.0
  0
LINE
  5
6632
330
1F
100
AcDbEntity
  8
zintek
  6
Continuous
 62
   120
100
AcDbLine
 10
48.48902374615113
 20
198.7673629810421
 30
0.0
 11
69.95696314193543
 21
172.4479407051156
 31
0.0
1001
AC_800
1000
ELEMENT_19
1002
{
1071
      945
1005
654F
1003
0
1011
-3.793536292658814
1021
-16.24093981692957
1031
0.0
1011
1.206463707341185
1021
-16.24093981692957
1031
0.0
1011
-3.793536292658814
1021
-11.24093981692957
1031
0.0
1002
}
  0
LINE
  5
6633
330
1F
100
AcDbEntity
  8
zintek
  6
Continuous
 62
     7
100
AcDbLine
 10
48.48902374615102
 20
198.7673629810421
 30
0.0
 11
46.89306727431818
 21
200.7239854375232
 31
0.0
  0
ARC
  5
6634
330
1F
100
AcDbEntity
  8
zintek
  6
Continuous
100
AcDbCircle
 10
72.22631584002306
 20
190.8180813514143
 30
0.0
 40
1.991630343839835
100
AcDbArc
 50
116.6261983874822
 51
179.1070449536986
  0
ARC
  5
6635
330
1F
100
AcDbEntity
  8
zintek
  6
Continuous
100
AcDbCircle
 10
108.546945525075
 20
198.3941279232007
 30
0.0
 40
2.024798966842491
100
AcDbArc
 50
136.3968829475052
 51
161.3073684154985
  0
ARC
  5
6636
330
1F
100
AcDbEntity
  8
zintek
  6
Continuous
100
AcDbCircle
 10
105.2561584979904
 20
200.6689145157195
 30
0.0
 40
1.991630343839835
100
AcDbArc
 50
131.6973651164252
 51
147.6060706366886
  0
TEXT
  5
6668
330
1F
100
AcDbEntity
  8
zintek
 48
0.1
100
AcDbText
 10
43.07930785868406
 20
275.4960283356412
 30
0.0
 40
6.0
  1
zintek® - Tetto con solaio in legno
  7
Architettonico
 72
     1
 11
104.9999999999962
 21
275.4960283356412
 31
0.0
100
AcDbText
  0
LINE
  5
666A
330
1F
100
AcDbEntity
  8
zintek
100
AcDbLine
 10
29.65220947564342
 20
28.89681740961521
 30
0.0
 11
29.65220947564319
 21
10.00000000000625
 31
0.0
  0
LINE
  5
666B
330
1F
100
AcDbEntity
  8
zintek
100
AcDbLine
 10
121.3138584372196
 20
28.8968174096151
 30
0.0
 11
121.3138584372195
 21
9.999950000006379
 31
0.0
  0
LWPOLYLINE
  5
666C
330
1F
100
AcDbEntity
  8
zintek
100
AcDbPolyline
 90
        4
 70
     1
 43
0.0
 10
-0.0000000000109139
 20
297.0000000000025
 10
210.0000000000037
 20
297.0000000000025
 10
210.0000000000037
 20
0.0
 10
0.0
 20
0.0
  0
LWPOLYLINE
  5
666D
330
1F
100
AcDbEntity
  8
zintek
100
AcDbPolyline
 90
        4
 70
     1
 43
0.0
 10
199.999999999996
 20
287.0000000000013
 10
199.999999999996
 20
10.00000000000125
 10
9.999999999996134
 20
10.00000000000668
 10
9.999999999996362
 20
286.9999999999959
  0
LINE
  5
666E
330
1F
100
AcDbEntity
  8
zintek
100
AcDbLine
 10
9.999999999996134
 20
28.89681740961521
 30
0.0
 11
199.999999999996
 21
28.89681740961521
 31
0.0
  0
LINE
  5
666F
330
1F
100
AcDbEntity
  8
zintek
100
AcDbLine
 10
121.3138584372195
 20
15.65346608447271
 30
0.0
 11
199.999999999996
 21
15.65346608447271
 31
0.0
  0
OLE2FRAME
  5
6670
330
1F
100
AcDbEntity
  8
0
100
AcDbOle2Frame
 70
     2
  1
OLE
1001
ACAD
1000
OLEBEGIN
1070
    70
1070
     1
1070
    71
1070
     1
1070
    40
1040
0.0
1070
    41
1040
11.05036214816482
1070
    42
1040
5.045138096442997
1070
    72
1070
     0
1070
     3
1000

1070
    90
1071
        0
1070
    43
1040
0.0
1070
     4
1000

1070
    91
1071
        0
1070
    44
1040
0.0
1000
OLEEND
  0
OLE2FRAME
  5
6671
330
1F
100
AcDbEntity
  8
0
100
AcDbOle2Frame
 70
     2
  1
OLE
1001
ACAD
1000
OLEBEGIN
1070
    70
1070
     1
1070
    71
1070
     1
1070
    40
1040
0.0
1070
    41
1040
39.69945177439081
1070
    42
1040
11.18111660543206
1070
    72
1070
     0
1070
     3
1000

1070
    90
1071
        0
1070
    43
1040
0.0
1070
     4
1000

1070
    91
1071
        0
1070
    44
1040
0.0
1000
OLEEND
  0
TEXT
  5
6672
330
1F
100
AcDbEntity
  8
zintek
  6
Continuous
100
AcDbText
 10
138.8687343342017
 20
12.20260130339019
 30
0.0
 40
1.6
  1
Via delle Industrie, 22 - 30175 Porto Marghera (VE) - Italy
  7
Georgia160
 11
138.8687343342017
 21
13.80260130339019
 31
0.0
100
AcDbText
 73
     3
  0
TEXT
  5
6673
330
1F
100
AcDbEntity
  8
zintek
  6
Continuous
100
AcDbText
 10
168.3360674540276
 20
26.28616239582583
 30
0.0
 40
1.7
  1
tel +39 041 2901866
  7
Georgia170
 11
168.3360674540276
 21
27.98616239582583
 31
0.0
100
AcDbText
 73
     3
  0
TEXT
  5
6674
330
1F
100
AcDbEntity
  8
zintek
  6
Continuous
100
AcDbText
 10
168.3360674540276
 20
22.82009693737449
 30
0.0
 40
1.7
  1
fax +39 041 2901834
  7
Georgia170
 11
168.3360674540276
 21
24.52009693737449
 31
0.0
100
AcDbText
 73
     3
  0
TEXT
  5
6675
330
1F
100
AcDbEntity
  8
zintek
  6
Continuous
100
AcDbText
 10
168.3360674540276
 20
19.83498804393831
 30
0.0
 40
1.7
  1
zintek@zintek.it
  7
Georgia170
 11
168.3360674540276
 21
21.53498804393831
 31
0.0
100
AcDbText
 73
     3
  0
TEXT
  5
6676
330
1F
100
AcDbEntity
  8
zintek
  6
Continuous
100
AcDbText
 10
168.3360674540276
 20
16.52128904150401
 30
0.0
 40
1.7
  1
www.zintek.it
  7
Georgia170
 11
168.3360674540276
 21
18.22128904150401
 31
0.0
100
AcDbText
 73
     3
  0
TEXT
  5
6677
330
1F
100
AcDbEntity
  8
zintek
  6
Continuous
100
AcDbText
 10
11.08558557766025
 20
24.12529536130878
 30
0.0
 40
1.6
  1
COD.
  7
Georgia160
 11
11.08558557766025
 21
25.72529536130878
 31
0.0
100
AcDbText
 73
     3
  0
TEXT
  5
6678
330
1F
100
AcDbEntity
  8
zintek
  6
Continuous
100
AcDbText
 10
33.82982043387551
 20
24.12529536130878
 30
0.0
 40
1.6
  1
TITOLO
  7
Georgia160
 11
33.82982043387551
 21
25.72529536130878
 31
0.0
100
AcDbText
 73
     3
  0
TEXT
  5
6679
330
1F
100
AcDbEntity
  8
zintek
 48
0.1
100
AcDbText
 10
16.69333511822924
 20
13.8783093715441
 30
0.0
 40
4.0
  1
C3
  7
Georgia400
 11
16.69333511822924
 21
17.8783093715441
 31
0.0
100
AcDbText
 73
     3
  0
TEXT
  5
667A
330
1F
100
AcDbEntity
  8
zintek
 48
0.1
100
AcDbText
 10
33.82982043387551
 20
13.8783093715441
 30
0.0
 40
4.0
  1
Tetto con solaio in legno
  7
Georgia400
100
AcDbText
  0
ENDSEC
  0
SECTION
  2
OBJECTS
  0
DICTIONARY
  5
C
330
0
100
AcDbDictionary
281
     1
  3
ACAD_COLOR
350
6B
  3
ACAD_GROUP
350
D
  3
ACAD_LAYOUT
350
1A
  3
ACAD_MATERIAL
350
6A
  3
ACAD_MLINESTYLE
350
17
  3
ACAD_PLOTSETTINGS
350
19
  3
ACAD_PLOTSTYLENAME
350
E
  3
ACAD_TABLESTYLE
350
7E
  3
ACDBHEADERROUNDTRIPXREC
350
66B8
  3
AcDbVariableDictionary
350
5E
  3
DWGPROPS
350
66B7
  0
DICTIONARY
  5
620B
330
2
100
AcDbDictionary
280
     1
281
     1
  3
ACAD_LAYERFILTERS
360
6686
  3
ACAD_LAYERSTATES
360
620C
  0
DICTIONARY
  5
6B
102
{ACAD_REACTORS
330
C
102
}
330
C
100
AcDbDictionary
281
     1
  0
DICTIONARY
  5
D
102
{ACAD_REACTORS
330
C
102
}
330
C
100
AcDbDictionary
281
     1
  0
DICTIONARY
  5
1A
102
{ACAD_REACTORS
330
C
102
}
330
C
100
AcDbDictionary
281
     1
  3
Layout1
350
D3
  3
Layout2
350
D7
  3
Model
350
22
  0
DICTIONARY
  5
6A
102
{ACAD_REACTORS
330
C
102
}
330
C
100
AcDbDictionary
281
     1
  0
DICTIONARY
  5
17
102
{ACAD_REACTORS
330
C
102
}
330
C
100
AcDbDictionary
281
     1
  3
Standard
350
18
  0
DICTIONARY
  5
19
102
{ACAD_REACTORS
330
C
102
}
330
C
100
AcDbDictionary
281
     1
  0
ACDBDICTIONARYWDFLT
  5
E
102
{ACAD_REACTORS
330
C
102
}
330
C
100
AcDbDictionary
281
     1
  3
Normal
350
F
100
AcDbDictionaryWithDefault
340
F
  0
DICTIONARY
  5
7E
102
{ACAD_REACTORS
330
C
102
}
330
C
100
AcDbDictionary
281
     1
  3
Standard
350
7F
  0
DICTIONARY
  5
66B8
102
{ACAD_REACTORS
330
C
102
}
330
C
100
AcDbDictionary
281
     1
  3
COLORDICT
350
66BA
  3
MATERIALDICT
350
66B9
  0
DICTIONARY
  5
5E
102
{ACAD_REACTORS
330
C
102
}
330
C
100
AcDbDictionary
281
     1
  3
CTABLESTYLE
350
84
  3
DIMASSOC
350
5F
  3
HIDETEXT
350
63
  3
PROJECTNAME
350
669C
  0
XRECORD
  5
66B7
102
{ACAD_REACTORS
330
C
102
}
330
C
100
AcDbXrecord
280
     1
  1
DWGPROPS COOKIE
  2

  3

  4

  6

  7

  8
Autodesk
  9

300
=
301
=
302
=
303
=
304
=
305
=
306
=
307
=
308
=
309
=
 40
0.0058371527777778
 41
2453619.458003646
 42
2453626.543430625
  1

 90
        0
  0
DICTIONARY
  5
6686
102
{ACAD_REACTORS
330
620B
102
}
330
620B
100
AcDbDictionary
281
     1
  0
DICTIONARY
  5
620C
102
{ACAD_REACTORS
330
620B
102
}
330
620B
100
AcDbDictionary
281
     1
  0
LAYOUT
  5
D3
102
{ACAD_XDICTIONARY
360
66BD
102
}
102
{ACAD_REACTORS
330
1A
102
}
330
1A
100
AcDbPlotSettings
  1

  2
C:\Documents and Settings\basas\Application Data\Autodesk\AutoCAD 2005\R16.1\enu\plotters\Default Windows System Printer.pc3
  4

  6

 40
0.0
 41
0.0
 42
0.0
 43
0.0
 44
0.0
 45
0.0
 46
0.0
 47
0.0
 48
0.0
 49
0.0
140
0.0
141
0.0
142
1.0
143
1.0
 70
   688
 72
     0
 73
     0
 74
     5
  7

 75
    16
147
1.0
148
0.0
149
0.0
100
AcDbLayout
  1
Layout1
 70
     1
 71
     1
 10
0.0
 20
0.0
 11
12.0
 21
9.0
 12
0.0
 22
0.0
 32
0.0
 14
0.0
 24
0.0
 34
0.0
 15
0.0
 25
0.0
 35
0.0
146
0.0
 13
0.0
 23
0.0
 33
0.0
 16
1.0
 26
0.0
 36
0.0
 17
0.0
 27
1.0
 37
0.0
 76
     0
330
D2
  0
LAYOUT
  5
D7
102
{ACAD_XDICTIONARY
360
66BF
102
}
102
{ACAD_REACTORS
330
1A
102
}
330
1A
100
AcDbPlotSettings
  1

  2
C:\Documents and Settings\basas\Application Data\Autodesk\AutoCAD 2005\R16.1\enu\plotters\Default Windows System Printer.pc3
  4

  6

 40
0.0
 41
0.0
 42
0.0
 43
0.0
 44
0.0
 45
0.0
 46
0.0
 47
0.0
 48
0.0
 49
0.0
140
0.0
141
0.0
142
1.0
143
1.0
 70
   688
 72
     0
 73
     0
 74
     5
  7

 75
    16
147
1.0
148
0.0
149
0.0
100
AcDbLayout
  1
Layout2
 70
     1
 71
     2
 10
0.0
 20
0.0
 11
12.0
 21
9.0
 12
0.0
 22
0.0
 32
0.0
 14
0.0
 24
0.0
 34
0.0
 15
0.0
 25
0.0
 35
0.0
146
0.0
 13
0.0
 23
0.0
 33
0.0
 16
1.0
 26
0.0
 36
0.0
 17
0.0
 27
1.0
 37
0.0
 76
     0
330
D6
  0
LAYOUT
  5
22
102
{ACAD_XDICTIONARY
360
66BB
102
}
102
{ACAD_REACTORS
330
1A
102
}
330
1A
100
AcDbPlotSettings
  1

  2
none_device
  4
ISO_A4_(210.00_x_297.00_MM)
  6

 40
7.5
 41
20.0
 42
7.5
 43
20.0
 44
210.0
 45
297.0
 46
11.54999923706054
 47
-13.65000009536743
 48
0.0
 49
0.0
140
0.0
141
0.0
142
1.0
143
8.704084754739808
 70
 11952
 72
     1
 73
     0
 74
     0
  7

 75
     0
147
0.1148885871608098
148
0.0
149
0.0
100
AcDbLayout
  1
Model
 70
     1
 71
     0
 10
0.0
 20
0.0
 11
12.0
 21
9.0
 12
0.0
 22
0.0
 32
0.0
 14
0.0
 24
0.0
 34
0.0
 15
0.0
 25
0.0
 35
0.0
146
0.0
 13
0.0
 23
0.0
 33
0.0
 16
1.0
 26
0.0
 36
0.0
 17
0.0
 27
1.0
 37
0.0
 76
     0
330
1F
1001
ACAD_PSEXT
1000
None
1000
None
1000
Not applicable
1000
The layout will not be plotted unless a new plotter configuration name is selected.
1070
     0
  0
MLINESTYLE
  5
18
102
{ACAD_REACTORS
330
17
102
}
330
17
100
AcDbMlineStyle
  2
STANDARD
 70
     0
  3

 62
   256
 51
90.0
 52
90.0
 71
     2
 49
0.5
 62
   256
  6
BYLAYER
 49
-0.5
 62
   256
  6
BYLAYER
  0
ACDBPLACEHOLDER
  5
F
102
{ACAD_REACTORS
330
E
102
}
330
E
  0
ACAD_PROXY_OBJECT
  5
7F
102
{ACAD_REACTORS
330
7E
102
}
330
7E
100
AcDbProxyObject
 90
      499
 91
      502
 95
       25
 70
     0
 93
     1841
310
4214DD185B99185C9928000000000000F83F0000000000003E0FC00000000000004901028000000C1008070000C3001FDFF8000000C1003FBFF000000182007F7FE00000030400FEFFC00000060801FDFF8000000C1003FBFF000000182000000000000000C2020B0000001820100E000186003FBFF000000182007F7FE000
310
00030400FEFFC00000060801FDFF8000000C1003FBFF000000182007F7FE0000003040000000000000012404160000003040201C00030C007F7FE00000030400FEFFC00000060801FDFF8000000C1003FBFF000000182007F7FE00000030400FEFFC000000608000
340
11
340
11
340
11
 94
        0
1001
ACAD
1000
AcRTDxfName
1000
TABLESTYLE
1000
AcRTDxfName
1000
TABLESTYLE
1000
AcRTDxfName
1000
TABLESTYLE
  0
XRECORD
  5
66BA
102
{ACAD_REACTORS
330
66B8
102
}
330
66B8
100
AcDbXrecord
280
     1
340
6B
  0
XRECORD
  5
66B9
102
{ACAD_REACTORS
330
66B8
102
}
330
66B8
100
AcDbXrecord
280
     1
340
6A
  0
DICTIONARYVAR
  5
84
102
{ACAD_REACTORS
330
5E
102
}
330
5E
100
DictionaryVariables
280
     0
  1
STANDARD
  0
DICTIONARYVAR
  5
5F
102
{ACAD_REACTORS
330
5E
102
}
330
5E
100
DictionaryVariables
280
     0
  1
2
  0
DICTIONARYVAR
  5
63
102
{ACAD_REACTORS
330
5E
102
}
330
5E
100
DictionaryVariables
280
     0
  1
1
  0
DICTIONARYVAR
  5
669C
102
{ACAD_REACTORS
330
5E
102
}
330
5E
100
DictionaryVariables
280
     0
  1

  0
DICTIONARY
  5
66BD
330
D3
100
AcDbDictionary
280
     1
281
     1
  3
ACAD_XREC_ROUNDTRIP
360
66BE
  0
DICTIONARY
  5
66BF
330
D7
100
AcDbDictionary
280
     1
281
     1
  3
ACAD_XREC_ROUNDTRIP
360
66C0
  0
DICTIONARY
  5
66BB
330
22
100
AcDbDictionary
280
     1
281
     1
  3
ACAD_XREC_ROUNDTRIP
360
66BC
  0
XRECORD
  5
66BE
102
{ACAD_REACTORS
330
66BD
102
}
330
66BD
100
AcDbXrecord
280
     1
102
SHADEPLOT
 70
     0
102
SHADEPLOTRESLEVEL
 70
     2
102
SHADEPLOTCUSTOMDPI
 70
   300
  0
XRECORD
  5
66C0
102
{ACAD_REACTORS
330
66BF
102
}
330
66BF
100
AcDbXrecord
280
     1
102
SHADEPLOT
 70
     0
102
SHADEPLOTRESLEVEL
 70
     2
102
SHADEPLOTCUSTOMDPI
 70
   300
  0
XRECORD
  5
66BC
102
{ACAD_REACTORS
330
66BB
102
}
330
66BB
100
AcDbXrecord
280
     1
102
SHADEPLOT
 70
     0
102
SHADEPLOTRESLEVEL
 70
     2
102
SHADEPLOTCUSTOMDPI
 70
   300
  0
ENDSEC
  0
EOF
